  0
SECTION
  2
HEADER
  9
$ACADVER
  1
AC1015
  9
$ACADMAINTVER
 70
     6
  9
$DWGCODEPAGE
  3
ANSI_932
  9
$INSBASE
 10
0.0
 20
0.0
 30
0.0
  9
$EXTMIN
 10
0.0
 20
0.0
 30
0.0
  9
$EXTMAX
 10
297.0
 20
210.0
 30
0.0
  9
$LIMMIN
 10
0.0
 20
0.0
  9
$LIMMAX
 10
297.0
 20
210.0
  9
$ORTHOMODE
 70
     0
  9
$REGENMODE
 70
     1
  9
$FILLMODE
 70
     1
  9
$QTEXTMODE
 70
     0
  9
$MIRRTEXT
 70
     1
  9
$LTSCALE
 40
1.0
  9
$ATTMODE
 70
     1
  9
$TEXTSIZE
 40
2.5
  9
$TRACEWID
 40
1.0
  9
$TEXTSTYLE
  7
寸法文字
  9
$CLAYER
  8
0
  9
$CELTYPE
  6
ByLayer
  9
$CECOLOR
 62
   256
  9
$CELTSCALE
 40
1.0
  9
$DISPSILH
 70
     0
  9
$DIMSCALE
 40
1.0
  9
$DIMASZ
 40
2.0
  9
$DIMEXO
 40
1.0
  9
$DIMDLI
 40
7.0
  9
$DIMRND
 40
0.0
  9
$DIMDLE
 40
6.0
  9
$DIMEXE
 40
1.0
  9
$DIMTP
 40
0.0
  9
$DIMTM
 40
0.0
  9
$DIMTXT
 40
4.0
  9
$DIMCEN
 40
2.5
  9
$DIMTSZ
 40
0.0
  9
$DIMTOL
 70
     0
  9
$DIMLIM
 70
     0
  9
$DIMTIH
 70
     0
  9
$DIMTOH
 70
     0
  9
$DIMSE1
 70
     0
  9
$DIMSE2
 70
     0
  9
$DIMTAD
 70
     1
  9
$DIMZIN
 70
     8
  9
$DIMBLK
  1

  9
$DIMASO
 70
     1
  9
$DIMSHO
 70
     1
  9
$DIMPOST
  1

  9
$DIMAPOST
  1

  9
$DIMALT
 70
     0
  9
$DIMALTD
 70
     3
  9
$DIMALTF
 40
0.03937
  9
$DIMLFAC
 40
1.0
  9
$DIMTOFL
 70
     1
  9
$DIMTVP
 40
0.0
  9
$DIMTIX
 70
     0
  9
$DIMSOXD
 70
     0
  9
$DIMSAH
 70
     1
  9
$DIMBLK1
  1
FXTIP_ARROW_S
  9
$DIMBLK2
  1
FXTIP_ARROW_E
  9
$DIMSTYLE
  2
FX_DIMINFO
  9
$DIMCLRD
 70
   151
  9
$DIMCLRE
 70
   151
  9
$DIMCLRT
 70
   231
  9
$DIMTFAC
 40
1.0
  9
$DIMGAP
 40
1.0
  9
$DIMJUST
 70
     0
  9
$DIMSD1
 70
     0
  9
$DIMSD2
 70
     0
  9
$DIMTOLJ
 70
     1
  9
$DIMTZIN
 70
     8
  9
$DIMALTZ
 70
     0
  9
$DIMALTTZ
 70
     0
  9
$DIMUPT
 70
     0
  9
$DIMDEC
 70
     2
  9
$DIMTDEC
 70
     2
  9
$DIMALTU
 70
     2
  9
$DIMALTTD
 70
     3
  9
$DIMTXSTY
  7
寸法文字
  9
$DIMAUNIT
 70
     0
  9
$DIMADEC
 70
     2
  9
$DIMALTRND
 40
0.0
  9
$DIMAZIN
 70
     2
  9
$DIMDSEP
 70
    46
  9
$DIMATFIT
 70
     3
  9
$DIMFRAC
 70
     0
  9
$DIMLDRBLK
  1
FXTIP_ARROW_S
  9
$DIMLUNIT
 70
     2
  9
$DIMLWD
 70
    -2
  9
$DIMLWE
 70
    -2
  9
$DIMTMOVE
 70
     0
  9
$LUNITS
 70
     2
  9
$LUPREC
 70
     4
  9
$SKETCHINC
 40
1.0
  9
$FILLETRAD
 40
10.0
  9
$AUNITS
 70
     0
  9
$AUPREC
 70
     0
  9
$MENU
  1
.
  9
$ELEVATION
 40
0.0
  9
$PELEVATION
 40
0.0
  9
$THICKNESS
 40
0.0
  9
$LIMCHECK
 70
     0
  9
$CHAMFERA
 40
0.0
  9
$CHAMFERB
 40
0.0
  9
$CHAMFERC
 40
0.0
  9
$CHAMFERD
 40
0.0
  9
$SKPOLY
 70
     0
  9
$TDCREATE
 40
2458422.388010614
  9
$TDUCREATE
 40
2458422.013010614
  9
$TDUPDATE
 40
2458422.38811515
  9
$TDUUPDATE
 40
2458422.01311515
  9
$TDINDWG
 40
0.0000000116
  9
$TDUSRTIMER
 40
0.0000000116
  9
$USRTIMER
 70
     1
  9
$ANGBASE
 50
0.0
  9
$ANGDIR
 70
     0
  9
$PDMODE
 70
     0
  9
$PDSIZE
 40
0.0
  9
$PLINEWID
 40
0.0
  9
$SPLFRAME
 70
     0
  9
$SPLINETYPE
 70
     6
  9
$SPLINESEGS
 70
     8
  9
$HANDSEED
  5
32C
  9
$SURFTAB1
 70
     6
  9
$SURFTAB2
 70
     6
  9
$SURFTYPE
 70
     6
  9
$SURFU
 70
     6
  9
$SURFV
 70
     6
  9
$UCSBASE
  2

  9
$UCSNAME
  2

  9
$UCSORG
 10
0.0
 20
0.0
 30
0.0
  9
$UCSXDIR
 10
1.0
 20
0.0
 30
0.0
  9
$UCSYDIR
 10
0.0
 20
1.0
 30
0.0
  9
$UCSORTHOREF
  2

  9
$UCSORTHOVIEW
 70
     0
  9
$UCSORGTOP
 10
0.0
 20
0.0
 30
0.0
  9
$UCSORGBOTTOM
 10
0.0
 20
0.0
 30
0.0
  9
$UCSORGLEFT
 10
0.0
 20
0.0
 30
0.0
  9
$UCSORGRIGHT
 10
0.0
 20
0.0
 30
0.0
  9
$UCSORGFRONT
 10
0.0
 20
0.0
 30
0.0
  9
$UCSORGBACK
 10
0.0
 20
0.0
 30
0.0
  9
$PUCSBASE
  2

  9
$PUCSNAME
  2

  9
$PUCSORG
 10
0.0
 20
0.0
 30
0.0
  9
$PUCSXDIR
 10
1.0
 20
0.0
 30
0.0
  9
$PUCSYDIR
 10
0.0
 20
1.0
 30
0.0
  9
$PUCSORTHOREF
  2

  9
$PUCSORTHOVIEW
 70
     0
  9
$PUCSORGTOP
 10
0.0
 20
0.0
 30
0.0
  9
$PUCSORGBOTTOM
 10
0.0
 20
0.0
 30
0.0
  9
$PUCSORGLEFT
 10
0.0
 20
0.0
 30
0.0
  9
$PUCSORGRIGHT
 10
0.0
 20
0.0
 30
0.0
  9
$PUCSORGFRONT
 10
0.0
 20
0.0
 30
0.0
  9
$PUCSORGBACK
 10
0.0
 20
0.0
 30
0.0
  9
$USERI1
 70
     0
  9
$USERI2
 70
     0
  9
$USERI3
 70
     0
  9
$USERI4
 70
     0
  9
$USERI5
 70
     0
  9
$USERR1
 40
0.0
  9
$USERR2
 40
0.0
  9
$USERR3
 40
0.0
  9
$USERR4
 40
0.0
  9
$USERR5
 40
0.0
  9
$WORLDVIEW
 70
     1
  9
$SHADEDGE
 70
     3
  9
$SHADEDIF
 70
    70
  9
$TILEMODE
 70
     1
  9
$MAXACTVP
 70
    64
  9
$PINSBASE
 10
0.0
 20
0.0
 30
0.0
  9
$PLIMCHECK
 70
     0
  9
$PEXTMIN
 10
1.000000000000000E+20
 20
1.000000000000000E+20
 30
1.000000000000000E+20
  9
$PEXTMAX
 10
-1.000000000000000E+20
 20
-1.000000000000000E+20
 30
-1.000000000000000E+20
  9
$PLIMMIN
 10
0.0
 20
0.0
  9
$PLIMMAX
 10
420.0
 20
297.0
  9
$UNITMODE
 70
     0
  9
$VISRETAIN
 70
     1
  9
$PLINEGEN
 70
     0
  9
$PSLTSCALE
 70
     1
  9
$TREEDEPTH
 70
  3020
  9
$CMLSTYLE
  2
Standard
  9
$CMLJUST
 70
     0
  9
$CMLSCALE
 40
20.0
  9
$PROXYGRAPHICS
 70
     1
  9
$MEASUREMENT
 70
     1
  9
$CELWEIGHT
370
    -1
  9
$ENDCAPS
280
     0
  9
$JOINSTYLE
280
     0
  9
$LWDISPLAY
290
     0
  9
$INSUNITS
 70
     4
  9
$HYPERLINKBASE
  1

  9
$STYLESHEET
  1

  9
$XEDIT
290
     1
  9
$CEPSNTYPE
380
     0
  9
$PSTYLEMODE
290
     1
  9
$FINGERPRINTGUID
  2
{C39A18BC-D82D-46DB-9A8F-DA1177816FCE}
  9
$VERSIONGUID
  2
{FAEB1C32-E019-11D5-929B-00C0DF256EC4}
  9
$EXTNAMES
290
     1
  9
$PSVPSCALE
 40
0.0
  9
$OLESTARTUP
290
     0
  0
ENDSEC
  0
SECTION
  2
CLASSES
  0
CLASS
  1
ACDBDICTIONARYWDFLT
  2
AcDbDictionaryWithDefault
  3
ObjectDBX Classes
 90
        0
280
     0
281
     0
  0
CLASS
  1
VISUALSTYLE
  2
AcDbVisualStyle
  3
ObjectDBX Classes
 90
     4095
280
     0
281
     0
  0
CLASS
  1
MATERIAL
  2
AcDbMaterial
  3
ObjectDBX Classes
 90
     1153
280
     0
281
     0
  0
CLASS
  1
SCALE
  2
AcDbScale
  3
ObjectDBX Classes
 90
     1153
280
     0
281
     0
  0
CLASS
  1
SUN
  2
AcDbSun
  3
SCENEOE
 90
     1153
280
     0
281
     0
  0
CLASS
  1
DICTIONARYVAR
  2
AcDbDictionaryVar
  3
ObjectDBX Classes
 90
        0
280
     0
281
     0
  0
CLASS
  1
ACDBPLACEHOLDER
  2
AcDbPlaceHolder
  3
ObjectDBX Classes
 90
        0
280
     0
281
     0
  0
CLASS
  1
LAYOUT
  2
AcDbLayout
  3
ObjectDBX Classes
 90
        0
280
     0
281
     0
  0
ENDSEC
  0
SECTION
  2
TABLES
  0
TABLE
  2
VPORT
  5
8
330
0
100
AcDbSymbolTable
 70
     1
  0
VPORT
  5
29
330
8
100
AcDbSymbolTableRecord
100
AcDbViewportTableRecord
  2
*Active
 70
     0
 10
0.0
 20
0.0
 11
1.0
 21
1.0
 12
148.5
 22
105.0
 13
0.0
 23
0.0
 14
10.0
 24
10.0
 15
10.0
 25
10.0
 16
0.0
 26
0.0
 36
1.0
 17
0.0
 27
0.0
 37
0.0
 40
210.0
 41
1.414285714285714
 42
50.0
 43
0.0
 44
0.0
 50
0.0
 51
0.0
 71
     0
 72
   100
 73
     1
 74
     3
 75
     0
 76
     0
 77
     0
 78
     0
281
     0
 65
     1
110
0.0
120
0.0
130
0.0
111
1.0
121
0.0
131
0.0
112
0.0
122
1.0
132
0.0
 79
     0
146
0.0
  0
ENDTAB
  0
TABLE
  2
LTYPE
  5
5
330
0
100
AcDbSymbolTable
 70
     5
  0
LTYPE
  5
14
330
5
100
AcDbSymbolTableRecord
100
AcDbLinetypeTableRecord
  2
ByBlock
 70
     0
  3

 72
    65
 73
     0
 40
0.0
  0
LTYPE
  5
15
330
5
100
AcDbSymbolTableRecord
100
AcDbLinetypeTableRecord
  2
ByLayer
 70
     0
  3

 72
    65
 73
     0
 40
0.0
  0
LTYPE
  5
16
330
5
100
AcDbSymbolTableRecord
100
AcDbLinetypeTableRecord
  2
Continuous
 70
     0
  3
Continuous
 72
    65
 73
     0
 40
0.0
  0
LTYPE
  5
6A
330
5
100
AcDbSymbolTableRecord
100
AcDbLinetypeTableRecord
  2
DASHDOT
 70
     0
  3
Dash dot __ . __ . __ . __ . __ . __ . __ . __
 72
    65
 73
     4
 40
25.3
 49
12.7
 74
     0
 49
-6.3
 74
     0
 49
0.0
 74
     0
 49
-6.3
 74
     0
  0
ENDTAB
  0
TABLE
  2
LAYER
  5
2
330
0
100
AcDbSymbolTable
 70
     7
  0
LAYER
  5
10
330
2
100
AcDbSymbolTableRecord
100
AcDbLayerTableRecord
  2
0
 70
     0
 62
     7
  6
Continuous
370
    -3
390
F
  0
LAYER
  5
DC
330
2
100
AcDbSymbolTableRecord
100
AcDbLayerTableRecord
  2
Defpoints
 70
     0
 62
     7
  6
Continuous
290
     0
370
    -3
390
F
  0
LAYER
  5
DE
330
2
100
AcDbSymbolTableRecord
100
AcDbLayerTableRecord
  2
部品図
 70
     0
 62
     7
  6
Continuous
370
    -3
390
F
  0
LAYER
  5
F7
330
2
100
AcDbSymbolTableRecord
100
AcDbLayerTableRecord
  2
勾配基準
 70
     0
 62
     7
  6
Continuous
370
    -3
390
F
  0
LAYER
  5
2A0
330
2
100
AcDbSymbolTableRecord
100
AcDbLayerTableRecord
  2
寸法線
 70
     0
 62
     7
  6
Continuous
370
    -3
390
F
  0
ENDTAB
  0
TABLE
  2
STYLE
  5
3
330
0
100
AcDbSymbolTable
 70
     5
  0
STYLE
  5
11
330
3
100
AcDbSymbolTableRecord
100
AcDbTextStyleTableRecord
  2
Standard
 70
     0
 40
0.0
 41
1.0
 50
0.0
 71
     0
 42
2.5
  3
txt
  4

  0
STYLE
  5
70
330
3
100
AcDbSymbolTableRecord
100
AcDbTextStyleTableRecord
  2
FX_VECTOR
 70
     0
 40
0.0
 41
1.0
 50
0.0
 71
     0
 42
2.5
  3
MONOTXT.SHX
  4
BigFont.shx
  0
STYLE
  5
DB
330
3
100
AcDbSymbolTableRecord
100
AcDbTextStyleTableRecord
  2
寸法文字
 70
     0
 40
0.0
 41
1.0
 50
0.0
 71
     0
 42
2.5
  3

  4

1001
ACAD
1000
MS UI Gothic
1071
    32818
  0
STYLE
  5
DD
330
3
100
AcDbSymbolTableRecord
100
AcDbTextStyleTableRecord
  2
DEFAULT
 70
     0
 40
0.0
 41
1.0
 50
0.0
 71
     0
 42
2.5
  3

  4

1001
ACAD
1000
ＭＳ ゴシック
1071
    32817
  0
STYLE
  5
E9
330
3
100
AcDbSymbolTableRecord
100
AcDbTextStyleTableRecord
  2
通常文字
 70
     0
 40
0.0
 41
1.0
 50
0.0
 71
     0
 42
2.5
  3

  4

1001
ACAD
1000
ＭＳ ゴシック
1071
    32817
  0
ENDTAB
  0
TABLE
  2
VIEW
  5
6
330
0
100
AcDbSymbolTable
 70
     0
  0
ENDTAB
  0
TABLE
  2
UCS
  5
7
330
0
100
AcDbSymbolTable
 70
     0
  0
ENDTAB
  0
TABLE
  2
APPID
  5
9
330
0
100
AcDbSymbolTable
 70
     1
  0
APPID
  5
12
330
9
100
AcDbSymbolTableRecord
100
AcDbRegAppTableRecord
  2
ACAD
 70
     0
  0
ENDTAB
  0
TABLE
  2
DIMSTYLE
  5
A
330
0
100
AcDbSymbolTable
 70
     2
100
AcDbDimStyleTable
  0
DIMSTYLE
105
27
330
A
100
AcDbSymbolTableRecord
100
AcDbDimStyleTableRecord
  2
ISO-25
 70
     0
 41
2.5
 42
0.625
 43
3.75
 44
1.25
 73
     0
 74
     0
 77
     1
 78
     8
140
2.5
141
2.5
143
0.03937007874016
147
0.625
171
     3
172
     1
178
     0
271
     2
272
     2
274
     3
278
    44
283
     0
284
     8
340
11
  0
DIMSTYLE
105
DA
330
A
100
AcDbSymbolTableRecord
100
AcDbDimStyleTableRecord
  2
FX_DIMINFO
 70
     0
 41
2.0
 42
1.0
 43
7.0
 44
1.0
 46
6.0
 73
     0
 74
     0
 77
     1
 78
     8
 79
     2
140
4.0
141
2.5
143
0.03937
147
1.0
171
     3
172
     1
173
     1
176
   151
177
   151
271
     2
178
   231
179
     2
271
     2
272
     2
274
     3
284
     8
340
DB
341
74
343
74
344
7A
  0
ENDTAB
  0
TABLE
  2
BLOCK_RECORD
  5
1
330
0
100
AcDbSymbolTable
 70
    22
  0
BLOCK_RECORD
  5
1F
330
1
100
AcDbSymbolTableRecord
100
AcDbBlockTableRecord
  2
*Model_Space
340
22
  0
BLOCK_RECORD
  5
1B
330
1
100
AcDbSymbolTableRecord
100
AcDbBlockTableRecord
  2
*Paper_Space
340
1E
  0
BLOCK_RECORD
  5
23
330
1
100
AcDbSymbolTableRecord
100
AcDbBlockTableRecord
  2
*Paper_Space0
340
26
  0
BLOCK_RECORD
  5
71
330
1
100
AcDbSymbolTableRecord
100
AcDbBlockTableRecord
  2
FXTIP_NONE
340
0
  0
BLOCK_RECORD
  5
74
330
1
100
AcDbSymbolTableRecord
100
AcDbBlockTableRecord
  2
FXTIP_ARROW_S
340
0
102
{BLKREFS
331
2A3
331
2AA
331
2B1
331
2B7
331
2BC
331
2C2
331
2CB
331
2D2
331
2D5
331
2DF
331
2E3
331
2E7
102
}
  0
BLOCK_RECORD
  5
7A
330
1
100
AcDbSymbolTableRecord
100
AcDbBlockTableRecord
  2
FXTIP_ARROW_E
340
0
102
{BLKREFS
331
299
331
29B
331
2A4
331
2AB
331
2B2
331
2B8
331
2BD
331
2C3
331
2C9
331
2D0
331
2D6
102
}
  0
BLOCK_RECORD
  5
80
330
1
100
AcDbSymbolTableRecord
100
AcDbBlockTableRecord
  2
FXTIP_BLACKDOT_S
340
0
  0
BLOCK_RECORD
  5
86
330
1
100
AcDbSymbolTableRecord
100
AcDbBlockTableRecord
  2
FXTIP_BLACKDOT_E
340
0
  0
BLOCK_RECORD
  5
8C
330
1
100
AcDbSymbolTableRecord
100
AcDbBlockTableRecord
  2
FXTIP_TRIANGLE_S
340
0
  0
BLOCK_RECORD
  5
93
330
1
100
AcDbSymbolTableRecord
100
AcDbBlockTableRecord
  2
FXTIP_TRIANGLE_E
340
0
  0
BLOCK_RECORD
  5
9A
330
1
100
AcDbSymbolTableRecord
100
AcDbBlockTableRecord
  2
FXTIP_ARCHITECT_S
340
0
  0
BLOCK_RECORD
  5
A0
330
1
100
AcDbSymbolTableRecord
100
AcDbBlockTableRecord
  2
FXTIP_ARCHITECT_E
340
0
  0
BLOCK_RECORD
  5
A6
330
1
100
AcDbSymbolTableRecord
100
AcDbBlockTableRecord
  2
FXTIP_CIVIL_S
340
0
  0
BLOCK_RECORD
  5
AC
330
1
100
AcDbSymbolTableRecord
100
AcDbBlockTableRecord
  2
FXTIP_CIVIL_E
340
0
  0
BLOCK_RECORD
  5
B2
330
1
100
AcDbSymbolTableRecord
100
AcDbBlockTableRecord
  2
FXTIP_WHITEDOT_S
340
0
  0
BLOCK_RECORD
  5
B7
330
1
100
AcDbSymbolTableRecord
100
AcDbBlockTableRecord
  2
FXTIP_WHITEDOT_E
340
0
  0
BLOCK_RECORD
  5
BC
330
1
100
AcDbSymbolTableRecord
100
AcDbBlockTableRecord
  2
FXTIP_UPARROW_S
340
0
  0
BLOCK_RECORD
  5
C1
330
1
100
AcDbSymbolTableRecord
100
AcDbBlockTableRecord
  2
FXTIP_UPARROW_E
340
0
  0
BLOCK_RECORD
  5
C6
330
1
100
AcDbSymbolTableRecord
100
AcDbBlockTableRecord
  2
FXTIP_DOWNARROW_S
340
0
  0
BLOCK_RECORD
  5
CB
330
1
100
AcDbSymbolTableRecord
100
AcDbBlockTableRecord
  2
FXTIP_DOWNARROW_E
340
0
  0
BLOCK_RECORD
  5
D0
330
1
100
AcDbSymbolTableRecord
100
AcDbBlockTableRecord
  2
FXTIP_BLACKTRIANGLE_S
340
0
  0
BLOCK_RECORD
  5
D5
330
1
100
AcDbSymbolTableRecord
100
AcDbBlockTableRecord
  2
FXTIP_BLACKTRIANGLE_E
340
0
  0
BLOCK_RECORD
  5
233
330
1
100
AcDbSymbolTableRecord
100
AcDbBlockTableRecord
  2
BLKF023
340
0
102
{BLKREFS
331
236
102
}
  0
BLOCK_RECORD
  5
264
330
1
100
AcDbSymbolTableRecord
100
AcDbBlockTableRecord
  2
BLKF024
340
0
102
{BLKREFS
331
267
102
}
  0
ENDTAB
  0
ENDSEC
  0
SECTION
  2
BLOCKS
  0
BLOCK
  5
20
330
1F
100
AcDbEntity
  8
0
100
AcDbBlockBegin
  2
*Model_Space
 70
     0
 10
0.0
 20
0.0
 30
0.0
  3
*Model_Space
  1
*Model_Space
  0
ENDBLK
  5
21
330
1F
100
AcDbEntity
  8
0
100
AcDbBlockEnd
  0
BLOCK
  5
1C
330
1B
100
AcDbEntity
 67
     1
  8
0
100
AcDbBlockBegin
  2
*Paper_Space
 70
     0
 10
0.0
 20
0.0
 30
0.0
  3
*Paper_Space
  1
*Paper_Space
  0
ENDBLK
  5
1D
330
1B
100
AcDbEntity
 67
     1
  8
0
100
AcDbBlockEnd
  0
BLOCK
  5
24
330
23
100
AcDbEntity
  8
0
100
AcDbBlockBegin
  2
*Paper_Space0
 70
     0
 10
0.0
 20
0.0
 30
0.0
  3
*Paper_Space0
  1
*Paper_Space0
  0
ENDBLK
  5
25
330
23
100
AcDbEntity
  8
0
100
AcDbBlockEnd
  0
BLOCK
  5
72
330
71
100
AcDbEntity
  8
0
100
AcDbBlockBegin
  2
FXTIP_NONE
 70
     0
 10
0.0
 20
0.0
 30
0.0
  3
FXTIP_NONE
  1
FXTIP_NONE
  0
ENDBLK
  5
73
330
71
100
AcDbEntity
  8
0
100
AcDbBlockEnd
  0
BLOCK
  5
75
330
74
100
AcDbEntity
  8
0
100
AcDbBlockBegin
  2
FXTIP_ARROW_S
 70
     0
 10
0.0
 20
0.0
 30
0.0
  3
FXTIP_ARROW_S
  1
FXTIP_ARROW_S
  0
LINE
  5
77
330
74
100
AcDbEntity
  8
0
  6
Continuous
 62
     0
370
    -2
100
AcDbLine
 10
0.0
 20
0.0
 30
0.0
 11
-1.0
 21
0.0000000000000001
 31
0.0
  0
LINE
  5
78
330
74
100
AcDbEntity
  8
0
  6
Continuous
 62
     0
370
    -2
100
AcDbLine
 10
0.0
 20
0.0
 30
0.0
 11
-0.9659258262890683
 21
-0.2588190451025206
 31
0.0
  0
LINE
  5
79
330
74
100
AcDbEntity
  8
0
  6
Continuous
 62
     0
370
    -2
100
AcDbLine
 10
0.0
 20
0.0
 30
0.0
 11
-0.9659258262890683
 21
0.2588190451025209
 31
0.0
  0
ENDBLK
  5
76
330
74
100
AcDbEntity
  8
0
100
AcDbBlockEnd
  0
BLOCK
  5
7B
330
7A
100
AcDbEntity
  8
0
100
AcDbBlockBegin
  2
FXTIP_ARROW_E
 70
     0
 10
0.0
 20
0.0
 30
0.0
  3
FXTIP_ARROW_E
  1
FXTIP_ARROW_E
  0
LINE
  5
7D
330
7A
100
AcDbEntity
  8
0
  6
Continuous
 62
     0
370
    -2
100
AcDbLine
 10
0.0
 20
0.0
 30
0.0
 11
-1.0
 21
0.0
 31
0.0
  0
LINE
  5
7E
330
7A
100
AcDbEntity
  8
0
  6
Continuous
 62
     0
370
    -2
100
AcDbLine
 10
0.0
 20
0.0
 30
0.0
 11
-0.9659258262890683
 21
0.2588190451025207
 31
0.0
  0
LINE
  5
7F
330
7A
100
AcDbEntity
  8
0
  6
Continuous
 62
     0
370
    -2
100
AcDbLine
 10
0.0
 20
0.0
 30
0.0
 11
-0.9659258262890683
 21
-0.2588190451025207
 31
0.0
  0
ENDBLK
  5
7C
330
7A
100
AcDbEntity
  8
0
100
AcDbBlockEnd
  0
BLOCK
  5
81
330
80
100
AcDbEntity
  8
0
100
AcDbBlockBegin
  2
FXTIP_BLACKDOT_S
 70
     0
 10
0.0
 20
0.0
 30
0.0
  3
FXTIP_BLACKDOT_S
  1
FXTIP_BLACKDOT_S
  0
LINE
  5
83
330
80
100
AcDbEntity
  8
0
  6
Continuous
 62
     0
370
    -2
100
AcDbLine
 10
0.0
 20
0.0
 30
0.0
 11
-1.0
 21
0.0000000000000001
 31
0.0
  0
LWPOLYLINE
  5
84
330
80
100
AcDbEntity
  8
0
  6
Continuous
 62
     0
370
    -2
100
AcDbPolyline
 90
        2
 70
     1
 43
0.25
 10
-0.125
 20
0.0
 42
1.0
 10
0.125
 20
0.0
 42
1.0
  0
CIRCLE
  5
85
330
80
100
AcDbEntity
  8
0
  6
Continuous
 62
     0
370
    -2
100
AcDbCircle
 10
0.0
 20
0.0
 30
0.0
 40
0.25
  0
ENDBLK
  5
82
330
80
100
AcDbEntity
  8
0
100
AcDbBlockEnd
  0
BLOCK
  5
87
330
86
100
AcDbEntity
  8
0
100
AcDbBlockBegin
  2
FXTIP_BLACKDOT_E
 70
     0
 10
0.0
 20
0.0
 30
0.0
  3
FXTIP_BLACKDOT_E
  1
FXTIP_BLACKDOT_E
  0
LINE
  5
89
330
86
100
AcDbEntity
  8
0
  6
Continuous
 62
     0
370
    -2
100
AcDbLine
 10
0.0
 20
0.0
 30
0.0
 11
-1.0
 21
0.0
 31
0.0
  0
LWPOLYLINE
  5
8A
330
86
100
AcDbEntity
  8
0
  6
Continuous
 62
     0
370
    -2
100
AcDbPolyline
 90
        2
 70
     1
 43
0.25
 10
-0.125
 20
0.0
 42
1.0
 10
0.125
 20
0.0
 42
1.0
  0
CIRCLE
  5
8B
330
86
100
AcDbEntity
  8
0
  6
Continuous
 62
     0
370
    -2
100
AcDbCircle
 10
0.0
 20
0.0
 30
0.0
 40
0.25
  0
ENDBLK
  5
88
330
86
100
AcDbEntity
  8
0
100
AcDbBlockEnd
  0
BLOCK
  5
8D
330
8C
100
AcDbEntity
  8
0
100
AcDbBlockBegin
  2
FXTIP_TRIANGLE_S
 70
     0
 10
0.0
 20
0.0
 30
0.0
  3
FXTIP_TRIANGLE_S
  1
FXTIP_TRIANGLE_S
  0
LINE
  5
8F
330
8C
100
AcDbEntity
  8
0
  6
Continuous
 62
     0
370
    -2
100
AcDbLine
 10
0.0
 20
0.0
 30
0.0
 11
-1.0
 21
0.0000000000000001
 31
0.0
  0
LINE
  5
90
330
8C
100
AcDbEntity
  8
0
  6
Continuous
 62
     0
370
    -2
100
AcDbLine
 10
0.0
 20
0.0
 30
0.0
 11
-0.9659258262890683
 21
-0.2588190451025206
 31
0.0
  0
LINE
  5
91
330
8C
100
AcDbEntity
  8
0
  6
Continuous
 62
     0
370
    -2
100
AcDbLine
 10
0.0
 20
0.0
 30
0.0
 11
-0.9659258262890683
 21
0.2588190451025209
 31
0.0
  0
LINE
  5
92
330
8C
100
AcDbEntity
  8
0
  6
Continuous
 62
     0
370
    -2
100
AcDbLine
 10
-0.9659258262890683
 20
-0.2588190451025206
 30
0.0
 11
-0.9659258262890683
 21
0.2588190451025209
 31
0.0
  0
ENDBLK
  5
8E
330
8C
100
AcDbEntity
  8
0
100
AcDbBlockEnd
  0
BLOCK
  5
94
330
93
100
AcDbEntity
  8
0
100
AcDbBlockBegin
  2
FXTIP_TRIANGLE_E
 70
     0
 10
0.0
 20
0.0
 30
0.0
  3
FXTIP_TRIANGLE_E
  1
FXTIP_TRIANGLE_E
  0
LINE
  5
96
330
93
100
AcDbEntity
  8
0
  6
Continuous
 62
     0
370
    -2
100
AcDbLine
 10
0.0
 20
0.0
 30
0.0
 11
-1.0
 21
0.0
 31
0.0
  0
LINE
  5
97
330
93
100
AcDbEntity
  8
0
  6
Continuous
 62
     0
370
    -2
100
AcDbLine
 10
0.0
 20
0.0
 30
0.0
 11
-0.9659258262890683
 21
0.2588190451025207
 31
0.0
  0
LINE
  5
98
330
93
100
AcDbEntity
  8
0
  6
Continuous
 62
     0
370
    -2
100
AcDbLine
 10
0.0
 20
0.0
 30
0.0
 11
-0.9659258262890683
 21
-0.2588190451025207
 31
0.0
  0
LINE
  5
99
330
93
100
AcDbEntity
  8
0
  6
Continuous
 62
     0
370
    -2
100
AcDbLine
 10
-0.9659258262890683
 20
0.2588190451025207
 30
0.0
 11
-0.9659258262890683
 21
-0.2588190451025207
 31
0.0
  0
ENDBLK
  5
95
330
93
100
AcDbEntity
  8
0
100
AcDbBlockEnd
  0
BLOCK
  5
9B
330
9A
100
AcDbEntity
  8
0
100
AcDbBlockBegin
  2
FXTIP_ARCHITECT_S
 70
     0
 10
0.0
 20
0.0
 30
0.0
  3
FXTIP_ARCHITECT_S
  1
FXTIP_ARCHITECT_S
  0
LINE
  5
9D
330
9A
100
AcDbEntity
  8
0
  6
Continuous
 62
     0
370
    -2
100
AcDbLine
 10
0.0
 20
0.0
 30
0.0
 11
-1.0
 21
0.0000000000000001
 31
0.0
  0
LINE
  5
9E
330
9A
100
AcDbEntity
  8
0
  6
Continuous
 62
     0
370
    -2
100
AcDbLine
 10
0.0
 20
0.0
 30
0.0
 11
-0.7071067811865476
 21
-0.7071067811865474
 31
0.0
  0
LINE
  5
9F
330
9A
100
AcDbEntity
  8
0
  6
Continuous
 62
     0
370
    -2
100
AcDbLine
 10
0.0
 20
0.0
 30
0.0
 11
0.7071067811865476
 21
0.7071067811865474
 31
0.0
  0
ENDBLK
  5
9C
330
9A
100
AcDbEntity
  8
0
100
AcDbBlockEnd
  0
BLOCK
  5
A1
330
A0
100
AcDbEntity
  8
0
100
AcDbBlockBegin
  2
FXTIP_ARCHITECT_E
 70
     0
 10
0.0
 20
0.0
 30
0.0
  3
FXTIP_ARCHITECT_E
  1
FXTIP_ARCHITECT_E
  0
LINE
  5
A3
330
A0
100
AcDbEntity
  8
0
  6
Continuous
 62
     0
370
    -2
100
AcDbLine
 10
0.0
 20
0.0
 30
0.0
 11
-1.0
 21
0.0
 31
0.0
  0
LINE
  5
A4
330
A0
100
AcDbEntity
  8
0
  6
Continuous
 62
     0
370
    -2
100
AcDbLine
 10
0.0
 20
0.0
 30
0.0
 11
0.7071067811865475
 21
0.7071067811865475
 31
0.0
  0
LINE
  5
A5
330
A0
100
AcDbEntity
  8
0
  6
Continuous
 62
     0
370
    -2
100
AcDbLine
 10
0.0
 20
0.0
 30
0.0
 11
-0.7071067811865475
 21
-0.7071067811865475
 31
0.0
  0
ENDBLK
  5
A2
330
A0
100
AcDbEntity
  8
0
100
AcDbBlockEnd
  0
BLOCK
  5
A7
330
A6
100
AcDbEntity
  8
0
100
AcDbBlockBegin
  2
FXTIP_CIVIL_S
 70
     0
 10
0.0
 20
0.0
 30
0.0
  3
FXTIP_CIVIL_S
  1
FXTIP_CIVIL_S
  0
LINE
  5
A9
330
A6
100
AcDbEntity
  8
0
  6
Continuous
 62
     0
370
    -2
100
AcDbLine
 10
0.0
 20
0.0
 30
0.0
 11
-1.0
 21
0.0000000000000002
 31
0.0
  0
LINE
  5
AA
330
A6
100
AcDbEntity
  8
0
  6
Continuous
 62
     0
370
    -2
100
AcDbLine
 10
0.0
 20
-0.125
 30
0.0
 11
-1.0
 21
-0.1249999999999998
 31
0.0
  0
LINE
  5
AB
330
A6
100
AcDbEntity
  8
0
  6
Continuous
 62
     0
370
    -2
100
AcDbLine
 10
0.0
 20
-0.25
 30
0.0
 11
-1.0
 21
-0.2499999999999999
 31
0.0
  0
ENDBLK
  5
A8
330
A6
100
AcDbEntity
  8
0
100
AcDbBlockEnd
  0
BLOCK
  5
AD
330
AC
100
AcDbEntity
  8
0
100
AcDbBlockBegin
  2
FXTIP_CIVIL_E
 70
     0
 10
0.0
 20
0.0
 30
0.0
  3
FXTIP_CIVIL_E
  1
FXTIP_CIVIL_E
  0
LINE
  5
AF
330
AC
100
AcDbEntity
  8
0
  6
Continuous
 62
     0
370
    -2
100
AcDbLine
 10
0.0
 20
0.0
 30
0.0
 11
-1.0
 21
0.0
 31
0.0
  0
LINE
  5
B0
330
AC
100
AcDbEntity
  8
0
  6
Continuous
 62
     0
370
    -2
100
AcDbLine
 10
0.0
 20
0.125
 30
0.0
 11
-1.0
 21
0.125
 31
0.0
  0
LINE
  5
B1
330
AC
100
AcDbEntity
  8
0
  6
Continuous
 62
     0
370
    -2
100
AcDbLine
 10
0.0
 20
0.25
 30
0.0
 11
-1.0
 21
0.25
 31
0.0
  0
ENDBLK
  5
AE
330
AC
100
AcDbEntity
  8
0
100
AcDbBlockEnd
  0
BLOCK
  5
B3
330
B2
100
AcDbEntity
  8
0
100
AcDbBlockBegin
  2
FXTIP_WHITEDOT_S
 70
     0
 10
0.0
 20
0.0
 30
0.0
  3
FXTIP_WHITEDOT_S
  1
FXTIP_WHITEDOT_S
  0
LINE
  5
B5
330
B2
100
AcDbEntity
  8
0
  6
Continuous
 62
     0
370
    -2
100
AcDbLine
 10
0.0
 20
0.0
 30
0.0
 11
-1.0
 21
0.0000000000000001
 31
0.0
  0
CIRCLE
  5
B6
330
B2
100
AcDbEntity
  8
0
  6
Continuous
 62
     0
370
    -2
100
AcDbCircle
 10
0.0
 20
0.0
 30
0.0
 40
0.25
  0
ENDBLK
  5
B4
330
B2
100
AcDbEntity
  8
0
100
AcDbBlockEnd
  0
BLOCK
  5
B8
330
B7
100
AcDbEntity
  8
0
100
AcDbBlockBegin
  2
FXTIP_WHITEDOT_E
 70
     0
 10
0.0
 20
0.0
 30
0.0
  3
FXTIP_WHITEDOT_E
  1
FXTIP_WHITEDOT_E
  0
LINE
  5
BA
330
B7
100
AcDbEntity
  8
0
  6
Continuous
 62
     0
370
    -2
100
AcDbLine
 10
0.0
 20
0.0
 30
0.0
 11
-1.0
 21
0.0
 31
0.0
  0
CIRCLE
  5
BB
330
B7
100
AcDbEntity
  8
0
  6
Continuous
 62
     0
370
    -2
100
AcDbCircle
 10
0.0
 20
0.0
 30
0.0
 40
0.25
  0
ENDBLK
  5
B9
330
B7
100
AcDbEntity
  8
0
100
AcDbBlockEnd
  0
BLOCK
  5
BD
330
BC
100
AcDbEntity
  8
0
100
AcDbBlockBegin
  2
FXTIP_UPARROW_S
 70
     0
 10
0.0
 20
0.0
 30
0.0
  3
FXTIP_UPARROW_S
  1
FXTIP_UPARROW_S
  0
LINE
  5
BF
330
BC
100
AcDbEntity
  8
0
  6
Continuous
 62
     0
370
    -2
100
AcDbLine
 10
0.0
 20
0.0
 30
0.0
 11
-1.0
 21
0.0000000000000001
 31
0.0
  0
LINE
  5
C0
330
BC
100
AcDbEntity
  8
0
  6
Continuous
 62
     0
370
    -2
100
AcDbLine
 10
0.0
 20
0.0
 30
0.0
 11
-0.9659258262890683
 21
-0.2588190451025206
 31
0.0
  0
ENDBLK
  5
BE
330
BC
100
AcDbEntity
  8
0
100
AcDbBlockEnd
  0
BLOCK
  5
C2
330
C1
100
AcDbEntity
  8
0
100
AcDbBlockBegin
  2
FXTIP_UPARROW_E
 70
     0
 10
0.0
 20
0.0
 30
0.0
  3
FXTIP_UPARROW_E
  1
FXTIP_UPARROW_E
  0
LINE
  5
C4
330
C1
100
AcDbEntity
  8
0
  6
Continuous
 62
     0
370
    -2
100
AcDbLine
 10
0.0
 20
0.0
 30
0.0
 11
-1.0
 21
0.0
 31
0.0
  0
LINE
  5
C5
330
C1
100
AcDbEntity
  8
0
  6
Continuous
 62
     0
370
    -2
100
AcDbLine
 10
0.0
 20
0.0
 30
0.0
 11
-0.9659258262890683
 21
0.2588190451025207
 31
0.0
  0
ENDBLK
  5
C3
330
C1
100
AcDbEntity
  8
0
100
AcDbBlockEnd
  0
BLOCK
  5
C7
330
C6
100
AcDbEntity
  8
0
100
AcDbBlockBegin
  2
FXTIP_DOWNARROW_S
 70
     0
 10
0.0
 20
0.0
 30
0.0
  3
FXTIP_DOWNARROW_S
  1
FXTIP_DOWNARROW_S
  0
LINE
  5
C9
330
C6
100
AcDbEntity
  8
0
  6
Continuous
 62
     0
370
    -2
100
AcDbLine
 10
0.0
 20
0.0
 30
0.0
 11
-1.0
 21
0.0000000000000001
 31
0.0
  0
LINE
  5
CA
330
C6
100
AcDbEntity
  8
0
  6
Continuous
 62
     0
370
    -2
100
AcDbLine
 10
0.0
 20
0.0
 30
0.0
 11
-0.9659258262890683
 21
0.2588190451025209
 31
0.0
  0
ENDBLK
  5
C8
330
C6
100
AcDbEntity
  8
0
100
AcDbBlockEnd
  0
BLOCK
  5
CC
330
CB
100
AcDbEntity
  8
0
100
AcDbBlockBegin
  2
FXTIP_DOWNARROW_E
 70
     0
 10
0.0
 20
0.0
 30
0.0
  3
FXTIP_DOWNARROW_E
  1
FXTIP_DOWNARROW_E
  0
LINE
  5
CE
330
CB
100
AcDbEntity
  8
0
  6
Continuous
 62
     0
370
    -2
100
AcDbLine
 10
0.0
 20
0.0
 30
0.0
 11
-1.0
 21
0.0
 31
0.0
  0
LINE
  5
CF
330
CB
100
AcDbEntity
  8
0
  6
Continuous
 62
     0
370
    -2
100
AcDbLine
 10
0.0
 20
0.0
 30
0.0
 11
-0.9659258262890683
 21
-0.2588190451025207
 31
0.0
  0
ENDBLK
  5
CD
330
CB
100
AcDbEntity
  8
0
100
AcDbBlockEnd
  0
BLOCK
  5
D1
330
D0
100
AcDbEntity
  8
0
100
AcDbBlockBegin
  2
FXTIP_BLACKTRIANGLE_S
 70
     0
 10
0.0
 20
0.0
 30
0.0
  3
FXTIP_BLACKTRIANGLE_S
  1
FXTIP_BLACKTRIANGLE_S
  0
LINE
  5
D3
330
D0
100
AcDbEntity
  8
0
  6
Continuous
 62
     0
370
    -2
100
AcDbLine
 10
0.0
 20
0.0
 30
0.0
 11
-1.0
 21
0.0000000000000001
 31
0.0
  0
SOLID
  5
D4
330
D0
100
AcDbEntity
  8
0
  6
Continuous
 62
     0
370
    -2
100
AcDbTrace
 10
0.0
 20
0.0
 30
0.0
 11
-0.9659258262890683
 21
-0.2588190451025206
 31
0.0
 12
-0.9659258262890683
 22
0.2588190451025209
 32
0.0
 13
-0.9659258262890683
 23
0.2588190451025209
 33
0.0
  0
ENDBLK
  5
D2
330
D0
100
AcDbEntity
  8
0
100
AcDbBlockEnd
  0
BLOCK
  5
D6
330
D5
100
AcDbEntity
  8
0
100
AcDbBlockBegin
  2
FXTIP_BLACKTRIANGLE_E
 70
     0
 10
0.0
 20
0.0
 30
0.0
  3
FXTIP_BLACKTRIANGLE_E
  1
FXTIP_BLACKTRIANGLE_E
  0
LINE
  5
D8
330
D5
100
AcDbEntity
  8
0
  6
Continuous
 62
     0
370
    -2
100
AcDbLine
 10
0.0
 20
0.0
 30
0.0
 11
-1.0
 21
0.0
 31
0.0
  0
SOLID
  5
D9
330
D5
100
AcDbEntity
  8
0
  6
Continuous
 62
     0
370
    -2
100
AcDbTrace
 10
0.0
 20
0.0
 30
0.0
 11
-0.9659258262890683
 21
0.2588190451025207
 31
0.0
 12
-0.9659258262890683
 22
-0.2588190451025207
 32
0.0
 13
-0.9659258262890683
 23
-0.2588190451025207
 33
0.0
  0
ENDBLK
  5
D7
330
D5
100
AcDbEntity
  8
0
100
AcDbBlockEnd
  0
BLOCK
  5
234
330
233
100
AcDbEntity
  8
0
100
AcDbBlockBegin
  2
BLKF023
 70
     0
 10
0.0
 20
0.0
 30
0.0
  3
BLKF023
  1
BLKF023
  0
LINE
  5
237
330
233
100
AcDbEntity
  8
勾配基準
  6
Continuous
 62
     7
370
    25
100
AcDbLine
 10
202.0000000000021
 20
126.1363188250848
 30
0.0
 11
202.8636808859132
 21
126.9999997109958
 31
0.0
  0
LINE
  5
238
330
233
100
AcDbEntity
  8
勾配基準
  6
Continuous
 62
     7
370
    25
100
AcDbLine
 10
202.0000000000021
 20
125.2382932129779
 30
0.0
 11
203.2617064980201
 21
126.4999997109958
 31
0.0
  0
LINE
  5
239
330
233
100
AcDbEntity
  8
勾配基準
  6
Continuous
 62
     7
370
    25
100
AcDbLine
 10
202.0000000000021
 20
124.3402676008709
 30
0.0
 11
204.159732110127
 21
126.4999997109958
 31
0.0
  0
LINE
  5
23A
330
233
100
AcDbEntity
  8
勾配基準
  6
Continuous
 62
     7
370
    25
100
AcDbLine
 10
202.0000000000021
 20
123.442241988764
 30
0.0
 11
205.0577577222339
 21
126.4999997109958
 31
0.0
  0
LINE
  5
23B
330
233
100
AcDbEntity
  8
勾配基準
  6
Continuous
 62
     7
370
    25
100
AcDbLine
 10
210.0000000000021
 20
132.3402676008709
 30
0.0
 11
210.7013535696313
 21
133.0416211705001
 31
0.0
  0
LINE
  5
23C
330
233
100
AcDbEntity
  8
勾配基準
  6
Continuous
 62
     7
370
    25
100
AcDbLine
 10
210.0000000000021
 20
131.442241988764
 30
0.0
 11
211.5839730022352
 21
133.026214990997
 31
0.0
  0
LINE
  5
23D
330
233
100
AcDbEntity
  8
勾配基準
  6
Continuous
 62
     7
370
    25
100
AcDbLine
 10
202.0000000000022
 20
122.5442163766572
 30
0.0
 11
205.9557833343408
 21
126.4999997109958
 31
0.0
  0
LINE
  5
23E
330
233
100
AcDbEntity
  8
勾配基準
  6
Continuous
 62
     7
370
    25
100
AcDbLine
 10
202.0000000000022
 20
121.6461907645503
 30
0.0
 11
206.8538089464477
 21
126.4999997109958
 31
0.0
  0
LINE
  5
23F
330
233
100
AcDbEntity
  8
勾配基準
  6
Continuous
 62
     7
370
    25
100
AcDbLine
 10
202.0000000000022
 20
120.7481651524433
 30
0.0
 11
207.7518345585546
 21
126.4999997109958
 31
0.0
  0
LINE
  5
240
330
233
100
AcDbEntity
  8
勾配基準
  6
Continuous
 62
     7
370
    25
100
AcDbLine
 10
202.0000000000022
 20
119.8501395403364
 30
0.0
 11
208.6498601706616
 21
126.4999997109958
 31
0.0
  0
LINE
  5
241
330
233
100
AcDbEntity
  8
勾配基準
  6
Continuous
 62
     7
370
    25
100
AcDbLine
 10
202.0000000000022
 20
118.9521139282294
 30
0.0
 11
209.5478857827685
 21
126.4999997109958
 31
0.0
  0
LINE
  5
242
330
233
100
AcDbEntity
  8
勾配基準
  6
Continuous
 62
     7
370
    25
100
AcDbLine
 10
210.0000000000021
 20
130.544216376657
 30
0.0
 11
212.0000000000021
 21
132.544216376657
 31
0.0
  0
LINE
  5
243
330
233
100
AcDbEntity
  8
勾配基準
  6
Continuous
 62
     7
370
    25
100
AcDbLine
 10
210.0000000000021
 20
129.6461907645501
 30
0.0
 11
212.0000000000021
 21
131.6461907645501
 31
0.0
  0
LINE
  5
244
330
233
100
AcDbEntity
  8
勾配基準
  6
Continuous
 62
     7
370
    25
100
AcDbLine
 10
210.0000000000021
 20
128.7481651524433
 30
0.0
 11
212.0000000000021
 21
130.7481651524433
 31
0.0
  0
LINE
  5
245
330
233
100
AcDbEntity
  8
勾配基準
  6
Continuous
 62
     7
370
    25
100
AcDbLine
 10
210.0000000000021
 20
127.8501395403364
 30
0.0
 11
212.0000000000021
 21
129.8501395403364
 31
0.0
  0
LINE
  5
246
330
233
100
AcDbEntity
  8
勾配基準
  6
Continuous
 62
     7
370
    25
100
AcDbLine
 10
210.0000000000021
 20
126.9521139282294
 30
0.0
 11
212.0000000000021
 21
128.9521139282294
 31
0.0
  0
LINE
  5
247
330
233
100
AcDbEntity
  8
勾配基準
  6
Continuous
 62
     7
370
    25
100
AcDbLine
 10
202.0000000000022
 20
118.0540883161227
 30
0.0
 11
212.0000000000021
 21
128.0540883161225
 31
0.0
  0
LINE
  5
248
330
233
100
AcDbEntity
  8
勾配基準
  6
Continuous
 62
     7
370
    25
100
AcDbLine
 10
202.0000000000022
 20
117.1560627040158
 30
0.0
 11
212.0000000000021
 21
127.1560627040155
 31
0.0
  0
LINE
  5
249
330
233
100
AcDbEntity
  8
勾配基準
  6
Continuous
 62
     7
370
    25
100
AcDbLine
 10
202.0000000000022
 20
116.2580370919088
 30
0.0
 11
212.0000000000021
 21
126.2580370919088
 31
0.0
  0
LINE
  5
24A
330
233
100
AcDbEntity
  8
勾配基準
  6
Continuous
 62
     7
370
    25
100
AcDbLine
 10
202.0000000000022
 20
115.3600114798019
 30
0.0
 11
212.0000000000021
 21
125.3600114798019
 31
0.0
  0
LINE
  5
24B
330
233
100
AcDbEntity
  8
勾配基準
  6
Continuous
 62
     7
370
    25
100
AcDbLine
 10
202.0000000000022
 20
114.4619858676949
 30
0.0
 11
212.0000000000021
 21
124.4619858676949
 31
0.0
  0
LINE
  5
24C
330
233
100
AcDbEntity
  8
勾配基準
  6
Continuous
 62
     7
370
    25
100
AcDbLine
 10
202.0000000000022
 20
113.563960255588
 30
0.0
 11
212.0000000000021
 21
123.563960255588
 31
0.0
  0
LINE
  5
24D
330
233
100
AcDbEntity
  8
勾配基準
  6
Continuous
 62
     7
370
    25
100
AcDbLine
 10
202.0000000000022
 20
112.665934643481
 30
0.0
 11
212.0000000000021
 21
122.665934643481
 31
0.0
  0
LINE
  5
24E
330
233
100
AcDbEntity
  8
勾配基準
  6
Continuous
 62
     7
370
    25
100
AcDbLine
 10
202.0000000000022
 20
111.7679090313743
 30
0.0
 11
212.0000000000021
 21
121.7679090313741
 31
0.0
  0
LINE
  5
24F
330
233
100
AcDbEntity
  8
勾配基準
  6
Continuous
 62
     7
370
    25
100
AcDbLine
 10
202.0000000000022
 20
110.8698834192674
 30
0.0
 11
212.0000000000021
 21
120.8698834192671
 31
0.0
  0
LINE
  5
250
330
233
100
AcDbEntity
  8
勾配基準
  6
Continuous
 62
     7
370
    25
100
AcDbLine
 10
201.8000000000022
 20
109.7718578071604
 30
0.0
 11
201.869777603738
 21
109.8416354108961
 31
0.0
  0
LINE
  5
251
330
233
100
AcDbEntity
  8
勾配基準
  6
Continuous
 62
     7
370
    25
100
AcDbLine
 10
202.0000000000022
 20
109.9718578071604
 30
0.0
 11
212.0000000000021
 21
119.9718578071604
 31
0.0
  0
LINE
  5
252
330
233
100
AcDbEntity
  8
勾配基準
  6
Continuous
 62
     7
370
    25
100
AcDbLine
 10
201.8000000000022
 20
108.8738321950534
 30
0.0
 11
212.0000000000021
 21
119.0738321950535
 31
0.0
  0
LINE
  5
253
330
233
100
AcDbEntity
  8
勾配基準
  6
Continuous
 62
     7
370
    25
100
AcDbLine
 10
202.0000000000022
 20
108.1758065829465
 30
0.0
 11
212.0000000000021
 21
118.1758065829465
 31
0.0
  0
LINE
  5
254
330
233
100
AcDbEntity
  8
勾配基準
  6
Continuous
 62
     7
370
    25
100
AcDbLine
 10
202.0000000000022
 20
107.2777809708396
 30
0.0
 11
212.0000000000021
 21
117.2777809708396
 31
0.0
  0
LINE
  5
255
330
233
100
AcDbEntity
  8
勾配基準
  6
Continuous
 62
     7
370
    25
100
AcDbLine
 10
202.0000000000022
 20
106.3797553587326
 30
0.0
 11
212.0000000000021
 21
116.3797553587326
 31
0.0
  0
LINE
  5
256
330
233
100
AcDbEntity
  8
勾配基準
  6
Continuous
 62
     7
370
    25
100
AcDbLine
 10
202.0000000000022
 20
105.4817297466259
 30
0.0
 11
212.0000000000021
 21
115.4817297466257
 31
0.0
  0
LINE
  5
257
330
233
100
AcDbEntity
  8
勾配基準
  6
Continuous
 62
     7
370
    25
100
AcDbLine
 10
201.8000000000022
 20
104.3837041345189
 30
0.0
 11
212.0000000000021
 21
114.5837041345189
 31
0.0
  0
LINE
  5
258
330
233
100
AcDbEntity
  8
勾配基準
  6
Continuous
 62
     7
370
    25
100
AcDbLine
 10
202.0000000000022
 20
103.685678522412
 30
0.0
 11
212.0000000000021
 21
113.685678522412
 31
0.0
  0
LINE
  5
259
330
233
100
AcDbEntity
  8
勾配基準
  6
Continuous
 62
     7
370
    25
100
AcDbLine
 10
202.2142165290203
 20
103.0018694393232
 30
0.0
 11
212.0000000000021
 21
112.787652910305
 31
0.0
  0
LINE
  5
25A
330
233
100
AcDbEntity
  8
勾配基準
  6
Continuous
 62
     7
370
    25
100
AcDbLine
 10
203.1201480860529
 20
103.009775384249
 30
0.0
 11
212.0000000000022
 21
111.8896272981981
 31
0.0
  0
LINE
  5
25B
330
233
100
AcDbEntity
  8
勾配基準
  6
Continuous
 62
     7
370
    25
100
AcDbLine
 10
204.0260796430855
 20
103.0176813291746
 30
0.0
 11
212.0000000000022
 21
110.9916016860911
 31
0.0
  0
LINE
  5
25C
330
233
100
AcDbEntity
  8
勾配基準
  6
Continuous
 62
     7
370
    25
100
AcDbLine
 10
204.9320112001182
 20
103.0255872741002
 30
0.0
 11
212.0000000000022
 21
110.0935760739842
 31
0.0
  0
LINE
  5
25D
330
233
100
AcDbEntity
  8
勾配基準
  6
Continuous
 62
     7
370
    25
100
AcDbLine
 10
205.8379427571508
 20
103.033493219026
 30
0.0
 11
212.0000000000022
 21
109.1955504618775
 31
0.0
  0
LINE
  5
25E
330
233
100
AcDbEntity
  8
勾配基準
  6
Continuous
 62
     7
370
    25
100
AcDbLine
 10
206.7438743141834
 20
103.0413991639516
 30
0.0
 11
212.0000000000022
 21
108.2975248497705
 31
0.0
  0
LINE
  5
25F
330
233
100
AcDbEntity
  8
勾配基準
  6
Continuous
 62
     7
370
    25
100
AcDbLine
 10
207.649805871216
 20
103.0493051088774
 30
0.0
 11
212.0000000000022
 21
107.3994992376636
 31
0.0
  0
LINE
  5
260
330
233
100
AcDbEntity
  8
勾配基準
  6
Continuous
 62
     7
370
    25
100
AcDbLine
 10
208.5557374282486
 20
103.057211053803
 30
0.0
 11
212.0000000000022
 21
106.5014736255566
 31
0.0
  0
LINE
  5
261
330
233
100
AcDbEntity
  8
勾配基準
  6
Continuous
 62
     7
370
    25
100
AcDbLine
 10
209.4616689852812
 20
103.0651169987289
 30
0.0
 11
212.0000000000022
 21
105.6034480134497
 31
0.0
  0
LINE
  5
262
330
233
100
AcDbEntity
  8
勾配基準
  6
Continuous
 62
     7
370
    25
100
AcDbLine
 10
210.3676005423139
 20
103.0730229436545
 30
0.0
 11
212.0000000000022
 21
104.7054224013427
 31
0.0
  0
LINE
  5
263
330
233
100
AcDbEntity
  8
勾配基準
  6
Continuous
 62
     7
370
    25
100
AcDbLine
 10
211.2735320993465
 20
103.0809288885803
 30
0.0
 11
212.0000000000022
 21
103.8073967892358
 31
0.0
  0
ENDBLK
  5
235
330
233
100
AcDbEntity
  8
0
100
AcDbBlockEnd
  0
BLOCK
  5
265
330
264
100
AcDbEntity
  8
0
100
AcDbBlockBegin
  2
BLKF024
 70
     0
 10
0.0
 20
0.0
 30
0.0
  3
BLKF024
  1
BLKF024
  0
LINE
  5
268
330
264
100
AcDbEntity
  8
勾配基準
  6
Continuous
 62
     7
370
    25
100
AcDbLine
 10
202.0000000000022
 20
98.29752484977053
 30
0.0
 11
202.6963977788814
 21
98.9939226286499
 31
0.0
  0
LINE
  5
269
330
264
100
AcDbEntity
  8
勾配基準
  6
Continuous
 62
     7
370
    25
100
AcDbLine
 10
202.0000000000022
 20
97.39949923766358
 30
0.0
 11
203.5866542405476
 21
98.98615347820896
 31
0.0
  0
LINE
  5
26A
330
264
100
AcDbEntity
  8
勾配基準
  6
Continuous
 62
     7
370
    25
100
AcDbLine
 10
202.0000000000022
 20
96.50147362555663
 30
0.0
 11
204.4769107022136
 21
98.97838432776803
 31
0.0
  0
LINE
  5
26B
330
264
100
AcDbEntity
  8
勾配基準
  6
Continuous
 62
     7
370
    25
100
AcDbLine
 10
202.0000000000022
 20
95.60344801344968
 30
0.0
 11
205.3671671638797
 21
98.97061517732732
 31
0.0
  0
LINE
  5
26C
330
264
100
AcDbEntity
  8
勾配基準
  6
Continuous
 62
     7
370
    25
100
AcDbLine
 10
202.0000000000022
 20
94.70542240134296
 30
0.0
 11
206.2574236255458
 21
98.96284602688638
 31
0.0
  0
LINE
  5
26D
330
264
100
AcDbEntity
  8
勾配基準
  6
Continuous
 62
     7
370
    25
100
AcDbLine
 10
201.8000000000023
 20
93.60739678923596
 30
0.0
 11
207.1476800872119
 21
98.95507687644567
 31
0.0
  0
LINE
  5
26E
330
264
100
AcDbEntity
  8
勾配基準
  6
Continuous
 62
     7
370
    25
100
AcDbLine
 10
202.0000000000022
 20
92.90937117712906
 30
0.0
 11
208.037936548878
 21
98.94730772600474
 31
0.0
  0
LINE
  5
26F
330
264
100
AcDbEntity
  8
勾配基準
  6
Continuous
 62
     7
370
    25
100
AcDbLine
 10
201.8000000000023
 20
91.81134556502207
 30
0.0
 11
208.9281930105441
 21
98.93953857556403
 31
0.0
  0
LINE
  5
270
330
264
100
AcDbEntity
  8
勾配基準
  6
Continuous
 62
     7
370
    25
100
AcDbLine
 10
201.8000000000023
 20
90.91331995291534
 30
0.0
 11
209.8184494722102
 21
98.9317694251231
 31
0.0
  0
LINE
  5
271
330
264
100
AcDbEntity
  8
勾配基準
  6
Continuous
 62
     7
370
    25
100
AcDbLine
 10
201.8000000000023
 20
90.0152943408084
 30
0.0
 11
210.7087059338762
 21
98.92400027468238
 31
0.0
  0
LINE
  5
272
330
264
100
AcDbEntity
  8
勾配基準
  6
Continuous
 62
     7
370
    25
100
AcDbLine
 10
201.8000000000023
 20
89.11726872870145
 30
0.0
 11
211.5989623955424
 21
98.91623112424145
 31
0.0
  0
LINE
  5
273
330
264
100
AcDbEntity
  8
勾配基準
  6
Continuous
 62
     7
370
    25
100
AcDbLine
 10
201.8000000000023
 20
88.2192431165945
 30
0.0
 11
212.0000000000022
 21
98.41924311659454
 31
0.0
  0
LINE
  5
274
330
264
100
AcDbEntity
  8
勾配基準
  6
Continuous
 62
     7
370
    25
100
AcDbLine
 10
202.0000000000023
 20
87.5212175044876
 30
0.0
 11
212.0000000000022
 21
97.5212175044876
 31
0.0
  0
LINE
  5
275
330
264
100
AcDbEntity
  8
勾配基準
  6
Continuous
 62
     7
370
    25
100
AcDbLine
 10
202.0000000000023
 20
86.62319189238065
 30
0.0
 11
212.0000000000022
 21
96.62319189238065
 31
0.0
  0
LINE
  5
276
330
264
100
AcDbEntity
  8
勾配基準
  6
Continuous
 62
     7
370
    25
100
AcDbLine
 10
202.0000000000023
 20
85.7251662802737
 30
0.0
 11
212.0000000000022
 21
95.7251662802737
 31
0.0
  0
LINE
  5
277
330
264
100
AcDbEntity
  8
勾配基準
  6
Continuous
 62
     7
370
    25
100
AcDbLine
 10
202.0000000000023
 20
84.82714066816675
 30
0.0
 11
212.0000000000022
 21
94.82714066816675
 31
0.0
  0
LINE
  5
278
330
264
100
AcDbEntity
  8
勾配基準
  6
Continuous
 62
     7
370
    25
100
AcDbLine
 10
202.0000000000023
 20
83.92911505606003
 30
0.0
 11
212.0000000000022
 21
93.9291150560598
 31
0.0
  0
LINE
  5
279
330
264
100
AcDbEntity
  8
勾配基準
  6
Continuous
 62
     7
370
    25
100
AcDbLine
 10
202.0000000000023
 20
83.03108944395308
 30
0.0
 11
212.0000000000022
 21
93.03108944395285
 31
0.0
  0
LINE
  5
27A
330
264
100
AcDbEntity
  8
勾配基準
  6
Continuous
 62
     7
370
    25
100
AcDbLine
 10
202.0000000000023
 20
82.13306383184613
 30
0.0
 11
212.0000000000022
 21
92.13306383184613
 31
0.0
  0
LINE
  5
27B
330
264
100
AcDbEntity
  8
勾配基準
  6
Continuous
 62
     7
370
    25
100
AcDbLine
 10
202.0000000000023
 20
81.23503821973918
 30
0.0
 11
212.0000000000022
 21
91.23503821973918
 31
0.0
  0
LINE
  5
27C
330
264
100
AcDbEntity
  8
勾配基準
  6
Continuous
 62
     7
370
    25
100
AcDbLine
 10
202.0000000000023
 20
80.33701260763223
 30
0.0
 11
212.0000000000022
 21
90.33701260763223
 31
0.0
  0
LINE
  5
27D
330
264
100
AcDbEntity
  8
勾配基準
  6
Continuous
 62
     7
370
    25
100
AcDbLine
 10
202.0000000000023
 20
79.43898699552551
 30
0.0
 11
212.0000000000022
 21
89.43898699552528
 31
0.0
  0
LINE
  5
27E
330
264
100
AcDbEntity
  8
勾配基準
  6
Continuous
 62
     7
370
    25
100
AcDbLine
 10
202.0000000000023
 20
78.54096138341856
 30
0.0
 11
212.0000000000022
 21
88.54096138341833
 31
0.0
  0
LINE
  5
27F
330
264
100
AcDbEntity
  8
勾配基準
  6
Continuous
 62
     7
370
    25
100
AcDbLine
 10
202.0000000000023
 20
77.64293577131161
 30
0.0
 11
212.0000000000023
 21
87.64293577131161
 31
0.0
  0
LINE
  5
280
330
264
100
AcDbEntity
  8
勾配基準
  6
Continuous
 62
     7
370
    25
100
AcDbLine
 10
202.0000000000023
 20
76.74491015920466
 30
0.0
 11
212.0000000000023
 21
86.74491015920466
 31
0.0
  0
LINE
  5
281
330
264
100
AcDbEntity
  8
勾配基準
  6
Continuous
 62
     7
370
    25
100
AcDbLine
 10
202.0000000000023
 20
75.84688454709772
 30
0.0
 11
212.0000000000023
 21
85.84688454709772
 31
0.0
  0
LINE
  5
282
330
264
100
AcDbEntity
  8
勾配基準
  6
Continuous
 62
     7
370
    25
100
AcDbLine
 10
202.1733626638034
 20
75.12222159879184
 30
0.0
 11
212.0000000000023
 21
84.94885893499077
 31
0.0
  0
LINE
  5
283
330
264
100
AcDbEntity
  8
勾配基準
  6
Continuous
 62
     7
370
    25
100
AcDbLine
 10
202.9491669661142
 20
75.0000002889958
 30
0.0
 11
203.0000000000023
 21
75.05083332288382
 31
0.0
  0
LINE
  5
284
330
264
100
AcDbEntity
  8
勾配基準
  6
Continuous
 62
     7
370
    25
100
AcDbLine
 10
203.4491669661142
 20
75.5000002889958
 30
0.0
 11
212.0000000000023
 21
84.05083332288382
 31
0.0
  0
LINE
  5
285
330
264
100
AcDbEntity
  8
勾配基準
  6
Continuous
 62
     7
370
    25
100
AcDbLine
 10
204.3471925782211
 20
75.5000002889958
 30
0.0
 11
212.0000000000023
 21
83.1528077107771
 31
0.0
  0
LINE
  5
286
330
264
100
AcDbEntity
  8
勾配基準
  6
Continuous
 62
     7
370
    25
100
AcDbLine
 10
205.2452181903281
 20
75.5000002889958
 30
0.0
 11
212.0000000000023
 21
82.25478209867015
 31
0.0
  0
LINE
  5
287
330
264
100
AcDbEntity
  8
勾配基準
  6
Continuous
 62
     7
370
    25
100
AcDbLine
 10
206.143243802435
 20
75.5000002889958
 30
0.0
 11
212.0000000000023
 21
81.3567564865632
 31
0.0
  0
LINE
  5
288
330
264
100
AcDbEntity
  8
勾配基準
  6
Continuous
 62
     7
370
    25
100
AcDbLine
 10
207.0412694145419
 20
75.5000002889958
 30
0.0
 11
212.0000000000023
 21
80.45873087445625
 31
0.0
  0
LINE
  5
289
330
264
100
AcDbEntity
  8
勾配基準
  6
Continuous
 62
     7
370
    25
100
AcDbLine
 10
207.9392950266488
 20
75.5000002889958
 30
0.0
 11
212.0000000000023
 21
79.5607052623493
 31
0.0
  0
LINE
  5
28A
330
264
100
AcDbEntity
  8
勾配基準
  6
Continuous
 62
     7
370
    25
100
AcDbLine
 10
208.8373206387558
 20
75.5000002889958
 30
0.0
 11
212.0000000000023
 21
78.66267965024235
 31
0.0
  0
LINE
  5
28B
330
264
100
AcDbEntity
  8
勾配基準
  6
Continuous
 62
     7
370
    25
100
AcDbLine
 10
209.7353462508626
 20
75.5000002889958
 30
0.0
 11
212.0000000000023
 21
77.7646540381354
 31
0.0
  0
LINE
  5
28C
330
264
100
AcDbEntity
  8
勾配基準
  6
Continuous
 62
     7
370
    25
100
AcDbLine
 10
210.0000000000022
 20
74.86662842602846
 30
0.0
 11
212.0000000000023
 21
76.86662842602868
 31
0.0
  0
LINE
  5
28D
330
264
100
AcDbEntity
  8
勾配基準
  6
Continuous
 62
     7
370
    25
100
AcDbLine
 10
210.0000000000022
 20
73.9686028139215
 30
0.0
 11
212.0000000000024
 21
75.96860281392173
 31
0.0
  0
LINE
  5
28E
330
264
100
AcDbEntity
  8
勾配基準
  6
Continuous
 62
     7
370
    25
100
AcDbLine
 10
210.0000000000022
 20
73.07057720181479
 30
0.0
 11
212.0000000000024
 21
75.07057720181479
 31
0.0
  0
LINE
  5
28F
330
264
100
AcDbEntity
  8
勾配基準
  6
Continuous
 62
     7
370
    25
100
AcDbLine
 10
210.0000000000022
 20
72.17255158970784
 30
0.0
 11
212.0000000000024
 21
74.17255158970784
 31
0.0
  0
LINE
  5
290
330
264
100
AcDbEntity
  8
勾配基準
  6
Continuous
 62
     7
370
    25
100
AcDbLine
 10
210.0000000000023
 20
71.27452597760089
 30
0.0
 11
212.0000000000024
 21
73.27452597760089
 31
0.0
  0
LINE
  5
291
330
264
100
AcDbEntity
  8
勾配基準
  6
Continuous
 62
     7
370
    25
100
AcDbLine
 10
210.0000000000023
 20
70.37650036549394
 30
0.0
 11
212.0000000000024
 21
72.37650036549417
 31
0.0
  0
LINE
  5
292
330
264
100
AcDbEntity
  8
勾配基準
  6
Continuous
 62
     7
370
    25
100
AcDbLine
 10
210.0000000000023
 20
69.47847475338699
 30
0.0
 11
212.0000000000024
 21
71.47847475338722
 31
0.0
  0
LINE
  5
293
330
264
100
AcDbEntity
  8
勾配基準
  6
Continuous
 62
     7
370
    25
100
AcDbLine
 10
210.0000000000023
 20
68.58044914128004
 30
0.0
 11
212.0000000000024
 21
70.58044914128027
 31
0.0
  0
LINE
  5
294
330
264
100
AcDbEntity
  8
勾配基準
  6
Continuous
 62
     7
370
    25
100
AcDbLine
 10
210.832100845103
 20
68.51452437427383
 30
0.0
 11
212.0000000000024
 21
69.68242352917332
 31
0.0
  0
LINE
  5
295
330
264
100
AcDbEntity
  8
勾配基準
  6
Continuous
 62
     7
370
    25
100
AcDbLine
 10
211.746080023105
 20
68.53047794016902
 30
0.0
 11
212.0000000000024
 21
68.78439791706637
 31
0.0
  0
ENDBLK
  5
266
330
264
100
AcDbEntity
  8
0
100
AcDbBlockEnd
  0
ENDSEC
  0
SECTION
  2
ENTITIES
  0
LINE
  5
DF
330
1F
100
AcDbEntity
  8
部品図
  6
Continuous
 62
     7
370
    25
100
AcDbLine
 10
288.0
 20
191.0
 30
0.0
 11
203.0
 21
191.0
 31
0.0
  0
LINE
  5
E0
330
1F
100
AcDbEntity
  8
部品図
  6
Continuous
 62
     7
370
    25
100
AcDbLine
 10
203.0
 20
184.0
 30
0.0
 11
288.0
 21
184.0
 31
0.0
  0
LINE
  5
E1
330
1F
100
AcDbEntity
  8
部品図
  6
Continuous
 62
     7
370
    25
100
AcDbLine
 10
203.0
 20
179.0
 30
0.0
 11
288.0
 21
179.0
 31
0.0
  0
LINE
  5
E2
330
1F
100
AcDbEntity
  8
部品図
  6
Continuous
 62
     7
370
    25
100
AcDbLine
 10
203.0
 20
174.0
 30
0.0
 11
288.0
 21
174.0
 31
0.0
  0
LINE
  5
E3
330
1F
100
AcDbEntity
  8
部品図
  6
Continuous
 62
     7
370
    25
100
AcDbLine
 10
203.0
 20
191.0
 30
0.0
 11
203.0
 21
169.0
 31
0.0
  0
LINE
  5
E4
330
1F
100
AcDbEntity
  8
部品図
  6
Continuous
 62
     7
370
    25
100
AcDbLine
 10
213.0
 20
169.0
 30
0.0
 11
213.0
 21
184.0
 31
0.0
  0
LINE
  5
E5
330
1F
100
AcDbEntity
  8
部品図
  6
Continuous
 62
     7
370
    25
100
AcDbLine
 10
233.0
 20
169.0
 30
0.0
 11
233.0
 21
184.0
 31
0.0
  0
LINE
  5
E6
330
1F
100
AcDbEntity
  8
部品図
  6
Continuous
 62
     7
370
    25
100
AcDbLine
 10
243.0
 20
169.0
 30
0.0
 11
243.0
 21
184.0
 31
0.0
  0
LINE
  5
E7
330
1F
100
AcDbEntity
  8
部品図
  6
Continuous
 62
     7
370
    25
100
AcDbLine
 10
268.0
 20
169.0
 30
0.0
 11
268.0
 21
184.0
 31
0.0
  0
LINE
  5
E8
330
1F
100
AcDbEntity
  8
部品図
  6
Continuous
 62
     7
370
    25
100
AcDbLine
 10
288.0
 20
169.0
 30
0.0
 11
288.0
 21
191.0
 31
0.0
  0
TEXT
  5
EA
330
1F
100
AcDbEntity
  8
部品図
  6
Continuous
 62
     7
370
    25
100
AcDbText
 10
204.3999938964844
 20
180.2006965920922
 30
0.0
 40
2.740978291540435
  1
品番
 41
0.6742788461538461
  7
通常文字
 11
204.3999938964844
 21
179.6999969482422
 31
0.0
100
AcDbText
 73
     1
  0
TEXT
  5
EB
330
1F
100
AcDbEntity
  8
部品図
  6
Continuous
 62
     7
370
    25
100
AcDbText
 10
207.1713104248047
 20
175.2006965920922
 30
0.0
 40
2.740978291540435
  1
1
 41
0.6742788461538461
  7
通常文字
 11
207.1713104248047
 21
174.6999969482422
 31
0.0
100
AcDbText
 73
     1
  0
TEXT
  5
EC
330
1F
100
AcDbEntity
  8
部品図
  6
Continuous
 62
     7
370
    25
100
AcDbText
 10
219.3534393310547
 20
180.2006965920922
 30
0.0
 40
2.740978291540435
  1
品名
 41
0.6742788461538461
  7
通常文字
 11
219.3534393310547
 21
179.6999969482422
 31
0.0
100
AcDbText
 73
     1
  0
TEXT
  5
ED
330
1F
100
AcDbEntity
  8
部品図
  6
Continuous
 62
     7
370
    25
100
AcDbText
 10
234.359619140625
 20
180.2006965920922
 30
0.0
 40
2.740978291540435
  1
数量
 41
0.6742788461538461
  7
通常文字
 11
234.359619140625
 21
179.6999969482422
 31
0.0
100
AcDbText
 73
     1
  0
TEXT
  5
EE
330
1F
100
AcDbEntity
  8
部品図
  6
Continuous
 62
     7
370
    25
100
AcDbText
 10
251.96435546875
 20
180.2006965920922
 30
0.0
 40
2.740978291540435
  1
材質
 41
0.6742788461538461
  7
通常文字
 11
251.96435546875
 21
179.6999969482422
 31
0.0
100
AcDbText
 73
     1
  0
TEXT
  5
EF
330
1F
100
AcDbEntity
  8
部品図
  6
Continuous
 62
     7
370
    25
100
AcDbText
 10
274.6752319335938
 20
180.2006965920922
 30
0.0
 40
2.740978291540435
  1
備考
 41
0.6742788461538461
  7
通常文字
 11
274.6752319335938
 21
179.6999969482422
 31
0.0
100
AcDbText
 73
     1
  0
TEXT
  5
F0
330
1F
100
AcDbEntity
  8
部品図
  6
Continuous
 62
     7
370
    25
100
AcDbText
 10
213.9644012451172
 20
185.3724179624157
 30
0.0
 40
3.995025519168738
  1
HRタイプ（貼付け縁石鋲）
 41
0.6742788461538461
  7
通常文字
 11
213.9644012451172
 21
184.6426391601562
 31
0.0
100
AcDbText
 73
     1
  0
TEXT
  5
F1
330
1F
100
AcDbEntity
  8
部品図
  6
Continuous
 62
     7
370
    25
100
AcDbText
 10
215.8721771240234
 20
175.2006965920922
 30
0.0
 40
2.740978291540435
  1
反射本体
 41
0.6742788461538461
  7
通常文字
 11
215.8721771240234
 21
174.6999969482422
 31
0.0
100
AcDbText
 73
     1
  0
TEXT
  5
F2
330
1F
100
AcDbEntity
  8
部品図
  6
Continuous
 62
     7
370
    25
100
AcDbText
 10
237.1713104248047
 20
175.2006965920922
 30
0.0
 40
2.740978291540435
  1
1
 41
0.6742788461538461
  7
通常文字
 11
237.1713104248047
 21
174.6999969482422
 31
0.0
100
AcDbText
 73
     1
  0
TEXT
  5
F3
330
1F
100
AcDbEntity
  8
部品図
  6
Continuous
 62
     7
370
    25
100
AcDbText
 10
243.6227111816406
 20
175.111124678625
 30
0.0
 40
2.250635082071478
  1
ポリカーボネイト
 41
0.6742788461538461
  7
通常文字
 11
243.6227111816406
 21
174.6999969482422
 31
0.0
100
AcDbText
 73
     1
  0
TEXT
  5
F4
330
1F
100
AcDbEntity
  8
部品図
  6
Continuous
 62
     7
370
    25
100
AcDbText
 10
269.8508911132812
 20
175.2006965920922
 30
0.0
 40
2.740978291540435
  1
黄色/灰色
 41
0.6742788461538461
  7
通常文字
 11
269.8508911132812
 21
174.6999969482422
 31
0.0
100
AcDbText
 73
     1
  0
LINE
  5
F5
330
1F
100
AcDbEntity
  8
0
  6
Continuous
 62
     7
370
    13
100
AcDbLine
 10
63.0
 20
13.0
 30
0.0
 11
80.0
 21
13.0
 31
0.0
  0
TEXT
  5
F6
330
1F
100
AcDbEntity
  8
0
  6
Continuous
 62
   231
370
    25
100
AcDbText
 10
64.0
 20
14.83032670454545
 30
0.0
 40
4.545454545454545
  1
S=1/1
 41
0.6742788461538461
  7
通常文字
 11
64.0
 21
14.0
 31
0.0
100
AcDbText
 73
     1
  0
LINE
  5
F8
330
1F
100
AcDbEntity
  8
勾配基準
  6
Continuous
 62
     7
370
    25
100
AcDbLine
 10
38.50000119207999
 20
29.99999988579998
 30
0.0
 11
38.53491088748001
 21
28.0
 31
0.0
  0
LINE
  5
F9
330
1F
100
AcDbEntity
  8
勾配基準
  6
Continuous
 62
     7
370
    25
100
AcDbLine
 10
103.46508911252
 20
28.0
 30
0.0
 11
103.4999988079
 21
29.99999988579998
 31
0.0
  0
LINE
  5
FA
330
1F
100
AcDbEntity
  8
勾配基準
  6
Continuous
 62
     7
370
    25
100
AcDbLine
 10
97.00000053644001
 20
36.99999986904004
 30
0.0
 11
97.00000053644001
 21
37.49999995100006
 31
0.0
  0
LINE
  5
FB
330
1F
100
AcDbEntity
  8
勾配基準
  6
Continuous
 62
     7
370
    25
100
AcDbLine
 10
44.99999946356002
 20
37.49999995100006
 30
0.0
 11
44.99999946356002
 21
36.99999986904004
 31
0.0
  0
ARC
  5
FC
330
1F
100
AcDbEntity
  8
勾配基準
  6
Continuous
 62
     7
370
    25
100
AcDbCircle
 10
45.50000028900001
 20
37.49999999991996
 30
0.0
 40
0.5
100
AcDbArc
 50
90.0
 51
180.0
  0
ARC
  5
FD
330
1F
100
AcDbEntity
  8
勾配基準
  6
Continuous
 62
     7
370
    25
100
AcDbCircle
 10
96.49999971100002
 20
37.49999999991996
 30
0.0
 40
0.5
100
AcDbArc
 50
0.0
 51
90.0
  0
LINE
  5
FE
330
1F
100
AcDbEntity
  8
勾配基準
  6
Continuous
 62
     7
370
    25
100
AcDbLine
 10
66.57441473006003
 20
38.19999969319997
 30
0.0
 11
66.57441473006003
 21
38.00000003296009
 31
0.0
  0
LINE
  5
FF
330
1F
100
AcDbEntity
  8
勾配基準
  6
Continuous
 62
     7
370
    25
100
AcDbLine
 10
62.72800499945998
 20
38.00000003296009
 30
0.0
 11
62.72800499945998
 21
38.19999969319997
 31
0.0
  0
LINE
  5
100
330
1F
100
AcDbEntity
  8
勾配基準
  6
Continuous
 62
     7
370
    25
100
AcDbLine
 10
52.30422458051999
 20
38.19999969319997
 30
0.0
 11
52.30422458051999
 21
38.00000003296009
 31
0.0
  0
LINE
  5
101
330
1F
100
AcDbEntity
  8
勾配基準
  6
Continuous
 62
     7
370
    25
100
AcDbLine
 10
76.80950407310002
 20
38.19999969319997
 30
0.0
 11
76.80950407310002
 21
38.00000003296009
 31
0.0
  0
LINE
  5
102
330
1F
100
AcDbEntity
  8
勾配基準
  6
Continuous
 62
     7
370
    25
100
AcDbLine
 10
87.33025705814
 20
38.00000003296009
 30
0.0
 11
87.33025705814
 21
38.19999969319997
 31
0.0
  0
LINE
  5
103
330
1F
100
AcDbEntity
  8
勾配基準
  6
Continuous
 62
     7
370
    25
100
AcDbLine
 10
62.78624432534002
 20
38.19999969319997
 30
0.0
 11
62.78624432534002
 21
38.00000003296009
 31
0.0
  0
LINE
  5
104
330
1F
100
AcDbEntity
  8
勾配基準
  6
Continuous
 62
     7
370
    25
100
AcDbLine
 10
97.00000053644001
 20
29.99999988579998
 30
0.0
 11
97.00000053644001
 21
36.99999986904004
 31
0.0
  0
LINE
  5
105
330
1F
100
AcDbEntity
  8
勾配基準
  6
Continuous
 62
     7
370
    25
100
AcDbLine
 10
44.99999946356002
 20
36.99999986904004
 30
0.0
 11
44.99999946356002
 21
29.99999988579998
 31
0.0
  0
LINE
  5
106
330
1F
100
AcDbEntity
  8
勾配基準
  6
Continuous
 62
     7
370
    25
100
AcDbLine
 10
96.76970122754
 20
29.99999988579998
 30
0.0
 11
96.76970122754
 21
36.70000037865998
 31
0.0
  0
LINE
  5
107
330
1F
100
AcDbEntity
  8
勾配基準
  6
Continuous
 62
     7
370
    25
100
AcDbLine
 10
45.23029877243999
 20
36.70000037865998
 30
0.0
 11
45.23029877243999
 21
29.99999988579998
 31
0.0
  0
LINE
  5
108
330
1F
100
AcDbEntity
  8
勾配基準
  6
Continuous
 62
     7
370
    25
100
AcDbLine
 10
45.23029877243999
 20
36.70000037865998
 30
0.0
 11
96.76970122754
 21
36.70000037865998
 31
0.0
  0
LINE
  5
109
330
1F
100
AcDbEntity
  8
勾配基準
  6
Continuous
 62
     7
370
    25
100
AcDbLine
 10
103.46508911252
 20
28.0
 30
0.0
 11
38.53491088748001
 21
28.0
 31
0.0
  0
LINE
  5
10A
330
1F
100
AcDbEntity
  8
勾配基準
  6
Continuous
 62
     7
370
    25
100
AcDbLine
 10
38.50000119207999
 20
29.99999988579998
 30
0.0
 11
103.4999988079
 21
29.99999988579998
 31
0.0
  0
LINE
  5
10B
330
1F
100
AcDbEntity
  8
勾配基準
  6
Continuous
 62
     7
370
    25
100
AcDbLine
 10
96.98918043076
 20
36.99999986904004
 30
0.0
 11
95.2920462042
 21
36.99999986904004
 31
0.0
  0
LINE
  5
10C
330
1F
100
AcDbEntity
  8
勾配基準
  6
Continuous
 62
     7
370
    25
100
AcDbLine
 10
95.2920462042
 20
36.99999986904004
 30
0.0
 11
71.0
 21
36.99999986904004
 31
0.0
  0
LINE
  5
10D
330
1F
100
AcDbEntity
  8
勾配基準
  6
Continuous
 62
     7
370
    25
100
AcDbLine
 10
71.0
 20
36.99999986904004
 30
0.0
 11
46.70795379577999
 21
36.99999986904004
 31
0.0
  0
LINE
  5
10E
330
1F
100
AcDbEntity
  8
勾配基準
  6
Continuous
 62
     7
370
    25
100
AcDbLine
 10
46.70795379577999
 20
36.99999986904004
 30
0.0
 11
45.01081956922002
 21
36.99999986904004
 31
0.0
  0
LINE
  5
10F
330
1F
100
AcDbEntity
  8
勾配基準
  6
Continuous
 62
     7
370
    25
100
AcDbLine
 10
45.50000047684
 20
38.00000003296009
 30
0.0
 11
96.49999952316
 21
38.00000003296009
 31
0.0
  0
LINE
  5
110
330
1F
100
AcDbEntity
  8
勾配基準
  6
Continuous
 62
     7
370
    25
100
AcDbLine
 10
45.51103292403997
 20
36.99999986904004
 30
0.0
 11
45.51103292403997
 21
36.70000037865998
 31
0.0
  0
LINE
  5
111
330
1F
100
AcDbEntity
  8
勾配基準
  6
Continuous
 62
     7
370
    25
100
AcDbLine
 10
96.48896707594
 20
36.99999986904004
 30
0.0
 11
96.48896707594
 21
36.70000037865998
 31
0.0
  0
LINE
  5
112
330
1F
100
AcDbEntity
  8
勾配基準
  6
Continuous
 62
     7
370
    25
100
AcDbLine
 10
66.57441473006003
 20
38.19999969319997
 30
0.0
 11
66.87441468610001
 21
38.19999969319997
 31
0.0
  0
LINE
  5
113
330
1F
100
AcDbEntity
  8
勾配基準
  6
Continuous
 62
     7
370
    25
100
AcDbLine
 10
66.87441468610001
 20
38.19999969319997
 30
0.0
 11
66.87441468610001
 21
38.00000003296009
 31
0.0
  0
LINE
  5
114
330
1F
100
AcDbEntity
  8
勾配基準
  6
Continuous
 62
     7
370
    25
100
AcDbLine
 10
59.43745607881999
 20
38.19999969319997
 30
0.0
 11
59.43745607881999
 21
38.00000003296009
 31
0.0
  0
LINE
  5
115
330
1F
100
AcDbEntity
  8
勾配基準
  6
Continuous
 62
     7
370
    25
100
AcDbLine
 10
59.43745607881999
 20
38.19999969319997
 30
0.0
 11
59.72832395135998
 21
38.19999969319997
 31
0.0
  0
LINE
  5
116
330
1F
100
AcDbEntity
  8
勾配基準
  6
Continuous
 62
     7
370
    25
100
AcDbLine
 10
59.72832395135998
 20
38.19999969319997
 30
0.0
 11
59.72832395135998
 21
38.00000003296009
 31
0.0
  0
LINE
  5
117
330
1F
100
AcDbEntity
  8
勾配基準
  6
Continuous
 62
     7
370
    25
100
AcDbLine
 10
54.80261845886002
 20
38.19999969319997
 30
0.0
 11
54.80261845886002
 21
38.00000003296009
 31
0.0
  0
LINE
  5
118
330
1F
100
AcDbEntity
  8
勾配基準
  6
Continuous
 62
     7
370
    25
100
AcDbLine
 10
54.80261845886002
 20
38.19999969319997
 30
0.0
 11
55.06242579221998
 21
38.19999969319997
 31
0.0
  0
LINE
  5
119
330
1F
100
AcDbEntity
  8
勾配基準
  6
Continuous
 62
     7
370
    25
100
AcDbLine
 10
55.06242579221998
 20
38.19999969319997
 30
0.0
 11
55.06242579221998
 21
38.00000003296009
 31
0.0
  0
LINE
  5
11A
330
1F
100
AcDbEntity
  8
勾配基準
  6
Continuous
 62
     7
370
    25
100
AcDbLine
 10
62.42800550907998
 20
38.19999969319997
 30
0.0
 11
62.42800550907998
 21
38.00000003296009
 31
0.0
  0
LINE
  5
11B
330
1F
100
AcDbEntity
  8
勾配基準
  6
Continuous
 62
     7
370
    25
100
AcDbLine
 10
62.42800550907998
 20
38.19999969319997
 30
0.0
 11
62.72800499945998
 21
38.19999969319997
 31
0.0
  0
LINE
  5
11C
330
1F
100
AcDbEntity
  8
勾配基準
  6
Continuous
 62
     7
370
    25
100
AcDbLine
 10
52.60422407089999
 20
38.19999969319997
 30
0.0
 11
52.60422407089999
 21
38.00000003296009
 31
0.0
  0
LINE
  5
11D
330
1F
100
AcDbEntity
  8
勾配基準
  6
Continuous
 62
     7
370
    25
100
AcDbLine
 10
52.60422407089999
 20
38.19999969319997
 30
0.0
 11
54.80261845886002
 21
38.19999969319997
 31
0.0
  0
LINE
  5
11E
330
1F
100
AcDbEntity
  8
勾配基準
  6
Continuous
 62
     7
370
    25
100
AcDbLine
 10
75.67363419010002
 20
38.19999969319997
 30
0.0
 11
75.67363419010002
 21
38.00000003296009
 31
0.0
  0
LINE
  5
11F
330
1F
100
AcDbEntity
  8
勾配基準
  6
Continuous
 62
     7
370
    25
100
AcDbLine
 10
75.67363419010002
 20
38.19999969319997
 30
0.0
 11
75.93344198912001
 21
38.19999969319997
 31
0.0
  0
LINE
  5
120
330
1F
100
AcDbEntity
  8
勾配基準
  6
Continuous
 62
     7
370
    25
100
AcDbLine
 10
75.93344198912001
 20
38.19999969319997
 30
0.0
 11
75.93344198912001
 21
38.00000003296009
 31
0.0
  0
LINE
  5
121
330
1F
100
AcDbEntity
  8
勾配基準
  6
Continuous
 62
     7
370
    25
100
AcDbLine
 10
85.82864841818
 20
38.19999969319997
 30
0.0
 11
85.82864841818
 21
38.00000003296009
 31
0.0
  0
LINE
  5
122
330
1F
100
AcDbEntity
  8
勾配基準
  6
Continuous
 62
     7
370
    25
100
AcDbLine
 10
85.82864841818
 20
38.19999969319997
 30
0.0
 11
86.08845575154001
 21
38.19999969319997
 31
0.0
  0
LINE
  5
123
330
1F
100
AcDbEntity
  8
勾配基準
  6
Continuous
 62
     7
370
    25
100
AcDbLine
 10
86.08845575154001
 20
38.19999969319997
 30
0.0
 11
86.08845575154001
 21
38.00000003296009
 31
0.0
  0
LINE
  5
124
330
1F
100
AcDbEntity
  8
勾配基準
  6
Continuous
 62
     7
370
    25
100
AcDbLine
 10
52.30422458051999
 20
38.19999969319997
 30
0.0
 11
52.60422407089999
 21
38.19999969319997
 31
0.0
  0
LINE
  5
125
330
1F
100
AcDbEntity
  8
勾配基準
  6
Continuous
 62
     7
370
    25
100
AcDbLine
 10
77.10950402914
 20
38.19999969319997
 30
0.0
 11
77.10950402914
 21
38.00000003296009
 31
0.0
  0
LINE
  5
126
330
1F
100
AcDbEntity
  8
勾配基準
  6
Continuous
 62
     7
370
    25
100
AcDbLine
 10
76.80950407310002
 20
38.19999969319997
 30
0.0
 11
77.10950402914
 21
38.19999969319997
 31
0.0
  0
LINE
  5
127
330
1F
100
AcDbEntity
  8
勾配基準
  6
Continuous
 62
     7
370
    25
100
AcDbLine
 10
59.72832395135998
 20
38.19999969319997
 30
0.0
 11
62.42800550907998
 21
38.19999969319997
 31
0.0
  0
LINE
  5
128
330
1F
100
AcDbEntity
  8
勾配基準
  6
Continuous
 62
     7
370
    25
100
AcDbLine
 10
66.87441468610001
 20
38.19999969319997
 30
0.0
 11
75.67363419010002
 21
38.19999969319997
 31
0.0
  0
LINE
  5
129
330
1F
100
AcDbEntity
  8
勾配基準
  6
Continuous
 62
     7
370
    25
100
AcDbLine
 10
77.10950402914
 20
38.19999969319997
 30
0.0
 11
85.82864841818
 21
38.19999969319997
 31
0.0
  0
LINE
  5
12A
330
1F
100
AcDbEntity
  8
勾配基準
  6
Continuous
 62
     7
370
    25
100
AcDbLine
 10
75.93344198912001
 20
38.19999969319997
 30
0.0
 11
76.80950407310002
 21
38.19999969319997
 31
0.0
  0
LINE
  5
12B
330
1F
100
AcDbEntity
  8
勾配基準
  6
Continuous
 62
     7
370
    25
100
AcDbLine
 10
58.11953312157999
 20
38.19999969319997
 30
0.0
 11
58.11953312157999
 21
38.00000003296009
 31
0.0
  0
LINE
  5
12C
330
1F
100
AcDbEntity
  8
勾配基準
  6
Continuous
 62
     7
370
    25
100
AcDbLine
 10
55.06242579221998
 20
38.19999969319997
 30
0.0
 11
58.11953312157999
 21
38.19999969319997
 31
0.0
  0
LINE
  5
12D
330
1F
100
AcDbEntity
  8
勾配基準
  6
Continuous
 62
     7
370
    25
100
AcDbLine
 10
87.29006490110001
 20
38.19999969319997
 30
0.0
 11
87.29006490110001
 21
38.00000003296009
 31
0.0
  0
LINE
  5
12E
330
1F
100
AcDbEntity
  8
勾配基準
  6
Continuous
 62
     7
370
    25
100
AcDbLine
 10
86.08845575154001
 20
38.19999969319997
 30
0.0
 11
87.29006490110001
 21
38.19999969319997
 31
0.0
  0
LINE
  5
12F
330
1F
100
AcDbEntity
  8
勾配基準
  6
Continuous
 62
     7
370
    25
100
AcDbLine
 10
58.11953312157999
 20
38.19999969319997
 30
0.0
 11
59.43745607881999
 21
38.19999969319997
 31
0.0
  0
LINE
  5
130
330
1F
100
AcDbEntity
  8
勾配基準
  6
Continuous
 62
     7
370
    25
100
AcDbLine
 10
87.29006490110001
 20
38.19999969319997
 30
0.0
 11
87.33025705814
 21
38.19999969319997
 31
0.0
  0
LINE
  5
131
330
1F
100
AcDbEntity
  8
勾配基準
  6
Continuous
 62
     7
370
    25
100
AcDbLine
 10
63.07791965453998
 20
38.19999969319997
 30
0.0
 11
63.07791965453998
 21
38.00000003296009
 31
0.0
  0
LINE
  5
132
330
1F
100
AcDbEntity
  8
勾配基準
  6
Continuous
 62
     7
370
    25
100
AcDbLine
 10
63.07791965453998
 20
38.19999969319997
 30
0.0
 11
63.36878706141999
 21
38.19999969319997
 31
0.0
  0
LINE
  5
133
330
1F
100
AcDbEntity
  8
勾配基準
  6
Continuous
 62
     7
370
    25
100
AcDbLine
 10
63.36878706141999
 20
38.19999969319997
 30
0.0
 11
63.36878706141999
 21
38.00000003296009
 31
0.0
  0
LINE
  5
134
330
1F
100
AcDbEntity
  8
勾配基準
  6
Continuous
 62
     7
370
    25
100
AcDbLine
 10
63.36878706141999
 20
38.19999969319997
 30
0.0
 11
66.57441473006003
 21
38.19999969319997
 31
0.0
  0
LINE
  5
135
330
1F
100
AcDbEntity
  8
勾配基準
  6
Continuous
 62
     7
370
    25
100
AcDbLine
 10
62.79537687449999
 20
38.19999969319997
 30
0.0
 11
62.79537687449999
 21
38.00000003296009
 31
0.0
  0
LINE
  5
136
330
1F
100
AcDbEntity
  8
勾配基準
  6
Continuous
 62
     7
370
    25
100
AcDbLine
 10
62.79537687449999
 20
38.19999969319997
 30
0.0
 11
63.07791965453998
 21
38.19999969319997
 31
0.0
  0
LINE
  5
137
330
1F
100
AcDbEntity
  8
勾配基準
  6
Continuous
 62
     7
370
    25
100
AcDbLine
 10
62.78624432534002
 20
38.19999969319997
 30
0.0
 11
62.79537687449999
 21
38.19999969319997
 31
0.0
  0
LINE
  5
138
330
1F
100
AcDbEntity
  8
勾配基準
  6
Continuous
 62
     7
370
    25
100
AcDbLine
 10
62.72800499945998
 20
38.19999969319997
 30
0.0
 11
62.78624432534002
 21
38.19999969319997
 31
0.0
  0
LINE
  5
139
330
1F
100
AcDbEntity
  8
勾配基準
  6
Continuous
 62
     7
370
    25
100
AcDbLine
 10
96.98918043076
 20
36.99999986904004
 30
0.0
 11
96.98918043076
 21
29.99999988579998
 31
0.0
  0
LINE
  5
13A
330
1F
100
AcDbEntity
  8
勾配基準
  6
Continuous
 62
     7
370
    25
100
AcDbLine
 10
45.01081956922002
 20
36.99999986904004
 30
0.0
 11
45.01081956922002
 21
29.99999988579998
 31
0.0
  0
LINE
  5
13B
330
1F
100
AcDbEntity
  8
勾配基準
  6
Continuous
 62
     7
370
    25
100
AcDbLine
 10
97.00000053644001
 20
37.49999995100006
 30
0.0
 11
44.99999946356002
 21
37.49999995100006
 31
0.0
  0
LINE
  5
13C
330
1F
100
AcDbEntity
  8
勾配基準
  6
Continuous
 62
     7
370
    25
100
AcDbLine
 10
45.01081956922002
 20
36.99999986904004
 30
0.0
 11
44.99999946356002
 21
36.99999986904004
 31
0.0
  0
LINE
  5
13D
330
1F
100
AcDbEntity
  8
勾配基準
  6
Continuous
 62
     7
370
    25
100
AcDbLine
 10
97.00000053644001
 20
36.99999986904004
 30
0.0
 11
96.98918043076
 21
36.99999986904004
 31
0.0
  0
ARC
  5
13E
330
1F
100
AcDbEntity
  8
勾配基準
  6
Continuous
 62
     7
370
    25
100
AcDbCircle
 10
78.28651590352001
 20
102.1339918041999
 30
0.0
 40
12.86948576431918
100
AcDbArc
 50
76.19815420850001
 51
103.8018457915
  0
ARC
  5
13F
330
1F
100
AcDbEntity
  8
勾配基準
  6
Continuous
 62
     7
370
    25
100
AcDbCircle
 10
80.30960196896001
 20
110.36937755346
 30
0.0
 40
4.389246636372548
100
AcDbArc
 50
56.71870990149994
 51
76.19815420849999
  0
ARC
  5
140
330
1F
100
AcDbEntity
  8
勾配基準
  6
Continuous
 62
     7
370
    25
100
AcDbCircle
 10
82.60417068658
 20
113.86501163556
 30
0.0
 40
0.2077991315090072
100
AcDbArc
 50
244.2678677835005
 51
56.71870990149997
  0
ARC
  5
141
330
1F
100
AcDbEntity
  8
勾配基準
  6
Continuous
 62
     7
370
    25
100
AcDbCircle
 10
79.23558381398001
 20
106.87563886056
 30
0.0
 40
7.550983589156001
100
AcDbArc
 50
64.26786778349997
 51
82.05544059310002
  0
ARC
  5
142
330
1F
100
AcDbEntity
  8
勾配基準
  6
Continuous
 62
     7
370
    25
100
AcDbCircle
 10
78.28651590352001
 20
100.0749286770599
 30
0.0
 40
14.41759766732205
100
AcDbArc
 50
82.05544059310002
 51
97.94455940689998
  0
ARC
  5
143
330
1F
100
AcDbEntity
  8
勾配基準
  6
Continuous
 62
     7
370
    25
100
AcDbCircle
 10
77.33744799307999
 20
106.87563886056
 30
0.0
 40
7.550983589156039
100
AcDbArc
 50
97.94455940689998
 51
115.7321322165
  0
ARC
  5
144
330
1F
100
AcDbEntity
  8
勾配基準
  6
Continuous
 62
     7
370
    25
100
AcDbCircle
 10
73.96886112046002
 20
113.86501163556
 30
0.0
 40
0.2077991315089998
100
AcDbArc
 50
123.2812900986005
 51
295.7321322163986
  0
ARC
  5
145
330
1F
100
AcDbEntity
  8
勾配基準
  6
Continuous
 62
     7
370
    25
100
AcDbCircle
 10
76.26342983810002
 20
110.36937755346
 30
0.0
 40
4.389246636372498
100
AcDbArc
 50
103.8018457915
 51
123.2812900985
  0
ARC
  5
146
330
1F
100
AcDbEntity
  8
勾配基準
  6
Continuous
 62
     7
370
    25
100
AcDbCircle
 10
78.28651590352001
 20
121.75596914114
 30
0.0
 40
9.345946323257886
100
AcDbArc
 50
257.4433432694
 51
282.5566567306
  0
ARC
  5
147
330
1F
100
AcDbEntity
  8
勾配基準
  6
Continuous
 62
     7
370
    25
100
AcDbCircle
 10
79.64131387475999
 20
115.11397872624
 30
0.0
 40
3.109689603349888
100
AcDbArc
 50
280.9818730026
 51
302.0018920401001
  0
ARC
  5
148
330
1F
100
AcDbEntity
  8
勾配基準
  6
Continuous
 62
     7
370
    25
100
AcDbCircle
 10
78.28651590352001
 20
122.09560207194
 30
0.0
 40
10.22154885983787
100
AcDbArc
 50
259.0181269974
 51
280.9818730027001
  0
ARC
  5
149
330
1F
100
AcDbEntity
  8
勾配基準
  6
Continuous
 62
     7
370
    25
100
AcDbCircle
 10
76.93171793227998
 20
115.11397872624
 30
0.0
 40
3.109689603349904
100
AcDbArc
 50
237.9981079599
 51
259.0181269974001
  0
ARC
  5
14A
330
1F
100
AcDbEntity
  8
勾配基準
  6
Continuous
 62
     7
370
    25
100
AcDbCircle
 10
79.59551185946
 20
115.8789780773
 30
0.0
 40
3.324941890673862
100
AcDbArc
 50
282.5566567306
 51
300.5928187516
  0
ARC
  5
14B
330
1F
100
AcDbEntity
  8
勾配基準
  6
Continuous
 62
     7
370
    25
100
AcDbCircle
 10
81.38304885774
 20
112.8555532769201
 30
0.0
 40
0.1873772923869179
100
AcDbArc
 50
335.4046148531997
 51
120.5928187516012
  0
ARC
  5
14C
330
1F
100
AcDbEntity
  8
勾配基準
  6
Continuous
 62
     7
370
    25
100
AcDbCircle
 10
80.92025824824
 20
113.06739027396
 30
0.0
 40
0.6963469000781002
100
AcDbArc
 50
302.0018920401002
 51
335.4046148532999
  0
ARC
  5
14D
330
1F
100
AcDbEntity
  8
勾配基準
  6
Continuous
 62
     7
370
    25
100
AcDbCircle
 10
76.97751994757999
 20
115.8789780773
 30
0.0
 40
3.324941890673964
100
AcDbArc
 50
239.4071812484
 51
257.4433432693999
  0
ARC
  5
14E
330
1F
100
AcDbEntity
  8
勾配基準
  6
Continuous
 62
     7
370
    25
100
AcDbCircle
 10
75.65277355879999
 20
113.06739027396
 30
0.0
 40
0.6963469000781375
100
AcDbArc
 50
204.5953851467006
 51
237.9981079598996
  0
ARC
  5
14F
330
1F
100
AcDbEntity
  8
勾配基準
  6
Continuous
 62
     7
370
    25
100
AcDbCircle
 10
75.18998294930003
 20
112.8555532769201
 30
0.0
 40
0.1873772923868433
100
AcDbArc
 50
59.40718124839866
 51
204.5953851466975
  0
ARC
  5
150
330
1F
100
AcDbEntity
  8
勾配基準
  6
Continuous
 62
     7
370
    25
100
AcDbCircle
 10
73.36966451299998
 20
106.43815155734
 30
0.0
 40
2.160189159955758
100
AcDbArc
 50
15.19755011980011
 51
53.46999236379982
  0
ARC
  5
151
330
1F
100
AcDbEntity
  8
勾配基準
  6
Continuous
 62
     7
370
    25
100
AcDbCircle
 10
75.16479858778001
 20
106.9257962685599
 30
0.0
 40
0.3000000000000106
100
AcDbArc
 50
220.3289510507995
 51
15.19755011979903
  0
ARC
  5
152
330
1F
100
AcDbEntity
  8
勾配基準
  6
Continuous
 62
     7
370
    25
100
AcDbCircle
 10
72.37166867444
 20
104.5546224068801
 30
0.0
 40
3.363883212534178
100
AcDbArc
 50
40.32895105080009
 51
61.0193981347
  0
ARC
  5
153
330
1F
100
AcDbEntity
  8
勾配基準
  6
Continuous
 62
     7
370
    25
100
AcDbCircle
 10
67.81586101507997
 20
96.32916145163995
 30
0.0
 40
12.76673338444169
100
AcDbArc
 50
61.01939813439999
 51
78.31981999600002
  0
ARC
  5
154
330
1F
100
AcDbEntity
  8
勾配基準
  6
Continuous
 62
     7
370
    25
100
AcDbCircle
 10
65.55181648069998
 20
85.37742689973993
 30
0.0
 40
23.9500418103527
100
AcDbArc
 50
78.3198199963
 51
101.6801800038
  0
ARC
  5
155
330
1F
100
AcDbEntity
  8
勾配基準
  6
Continuous
 62
     7
370
    25
100
AcDbCircle
 10
63.28777194624001
 20
96.32916145161994
 30
0.0
 40
12.76673338444174
100
AcDbArc
 50
101.6801800038
 51
118.9806018652
  0
ARC
  5
156
330
1F
100
AcDbEntity
  8
勾配基準
  6
Continuous
 62
     7
370
    25
100
AcDbCircle
 10
58.73196428694001
 20
104.5546224069001
 30
0.0
 40
3.363883212534162
100
AcDbArc
 50
118.9806018655001
 51
139.6710489497001
  0
ARC
  5
157
330
1F
100
AcDbEntity
  8
勾配基準
  6
Continuous
 62
     7
370
    25
100
AcDbCircle
 10
55.93883437357999
 20
106.9257962685599
 30
0.0
 40
0.3000000000000286
100
AcDbArc
 50
164.8024498801998
 51
319.6710489492002
  0
ARC
  5
158
330
1F
100
AcDbEntity
  8
勾配基準
  6
Continuous
 62
     7
370
    25
100
AcDbCircle
 10
57.73396844834002
 20
106.43815155722
 30
0.0
 40
2.160189159955738
100
AcDbArc
 50
126.5300076329
 51
164.8024498769001
  0
ARC
  5
159
330
1F
100
AcDbEntity
  8
勾配基準
  6
Continuous
 62
     7
370
    25
100
AcDbCircle
 10
62.17732382425999
 20
100.43987401138
 30
0.0
 40
9.624955768070116
100
AcDbArc
 50
104.2345767101
 51
126.5300076367
  0
ARC
  5
15A
330
1F
100
AcDbEntity
  8
勾配基準
  6
Continuous
 62
     7
370
    25
100
AcDbCircle
 10
65.55181648067997
 20
87.1377697611199
 30
0.0
 40
23.34840934846852
100
AcDbArc
 50
75.7654232907
 51
104.2345767092
  0
ARC
  5
15B
330
1F
100
AcDbEntity
  8
勾配基準
  6
Continuous
 62
     7
370
    25
100
AcDbCircle
 10
68.92630913732
 20
100.4398740113199
 30
0.0
 40
9.624955768070095
100
AcDbArc
 50
53.46999236439997
 51
75.76542329100002
  0
LINE
  5
15C
330
1F
100
AcDbEntity
  8
勾配基準
  6
Continuous
 62
     7
370
    25
100
AcDbLine
 10
72.21233210963999
 20
105.2331966424599
 30
0.0
 11
72.21233210963999
 21
105.38900564242
 31
0.0
  0
ARC
  5
15D
330
1F
100
AcDbEntity
  8
勾配基準
  6
Continuous
 62
     7
370
    25
100
AcDbCircle
 10
70.62801236349998
 20
105.64065866788
 30
0.0
 40
1.647405845484218
100
AcDbArc
 50
293.8284274887
 51
342.3979002640002
  0
ARC
  5
15E
330
1F
100
AcDbEntity
  8
勾配基準
  6
Continuous
 62
     7
370
    25
100
AcDbCircle
 10
65.55181648069998
 20
117.1344870977
 30
0.0
 40
14.21227180636605
100
AcDbArc
 50
246.1715725121
 51
293.8284274878
  0
ARC
  5
15F
330
1F
100
AcDbEntity
  8
勾配基準
  6
Continuous
 62
     7
370
    25
100
AcDbCircle
 10
60.47562059785997
 20
105.6406586679
 30
0.0
 40
1.647405845484204
100
AcDbArc
 50
197.6021362632
 51
246.1715725121001
  0
ARC
  5
160
330
1F
100
AcDbEntity
  8
勾配基準
  6
Continuous
 62
     7
370
    25
100
AcDbCircle
 10
59.19130111150002
 20
105.2331958237
 30
0.0
 40
0.3000000000000056
100
AcDbArc
 50
180.0
 51
197.6021362630995
  0
LINE
  5
161
330
1F
100
AcDbEntity
  8
勾配基準
  6
Continuous
 62
     7
370
    25
100
AcDbLine
 10
58.89130111150001
 20
105.3890053984801
 30
0.0
 11
58.89130111150001
 21
105.2331958237
 31
0.0
  0
ARC
  5
162
330
1F
100
AcDbEntity
  8
勾配基準
  6
Continuous
 62
     7
370
    25
100
AcDbCircle
 10
59.19130111150002
 20
105.3890053984801
 30
0.0
 40
0.3000000000000056
100
AcDbArc
 50
46.79813096649934
 51
180.0
  0
ARC
  5
163
330
1F
100
AcDbEntity
  8
勾配基準
  6
Continuous
 62
     7
370
    25
100
AcDbCircle
 10
60.67713741327998
 20
106.9711569229801
 30
0.0
 40
1.87046376662324
100
AcDbArc
 50
226.7981309665
 51
246.3686038164001
  0
ARC
  5
164
330
1F
100
AcDbEntity
  8
勾配基準
  6
Continuous
 62
     7
370
    25
100
AcDbCircle
 10
65.55181648064001
 20
118.11221167026
 30
0.0
 40
14.03128597942721
100
AcDbArc
 50
246.3686038166
 51
293.6313961837999
  0
ARC
  5
165
330
1F
100
AcDbEntity
  8
勾配基準
  6
Continuous
 62
     7
370
    25
100
AcDbCircle
 10
70.42649554816
 20
106.9711569230601
 30
0.0
 40
1.870463766623191
100
AcDbArc
 50
293.6313961811001
 51
313.2018784375001
  0
ARC
  5
166
330
1F
100
AcDbEntity
  8
勾配基準
  6
Continuous
 62
     7
370
    25
100
AcDbCircle
 10
71.91233210963998
 20
105.38900564242
 30
0.0
 40
0.300000000000049
100
AcDbArc
 50
0.0
 51
133.2018784404004
  0
ARC
  5
167
330
1F
100
AcDbEntity
  8
勾配基準
  6
Continuous
 62
     7
370
    25
100
AcDbCircle
 10
71.91233210963998
 20
105.2331966424599
 30
0.0
 40
0.300000000000005
100
AcDbArc
 50
342.3979002632
 51
0.0
  0
LINE
  5
168
330
1F
100
AcDbEntity
  8
勾配基準
  6
Continuous
 62
     7
370
    25
100
AcDbLine
 10
71.50091425246
 20
90.23137115109989
 30
0.0
 11
80.76110682230001
 21
96.12969810358004
 31
0.0
  0
LINE
  5
169
330
1F
100
AcDbEntity
  8
勾配基準
  6
Continuous
 62
     7
370
    25
100
AcDbLine
 10
76.87524458304
 20
90.23137115109989
 30
0.0
 11
71.50091425246
 21
90.23137115109989
 31
0.0
  0
ARC
  5
16A
330
1F
100
AcDbEntity
  8
勾配基準
  6
Continuous
 62
     7
370
    25
100
AcDbCircle
 10
76.87524458304
 20
89.93137115109994
 30
0.0
 40
0.3000000000000114
100
AcDbArc
 50
329.9999920671992
 51
90.0
  0
LINE
  5
16B
330
1F
100
AcDbEntity
  8
勾配基準
  6
Continuous
 62
     7
370
    25
100
AcDbLine
 10
75.93344187435997
 20
87.70012167443997
 30
0.0
 11
77.13505218339998
 21
89.78137111512001
 31
0.0
  0
ARC
  5
16C
330
1F
100
AcDbEntity
  8
勾配基準
  6
Continuous
 62
     7
370
    25
100
AcDbCircle
 10
75.67363427397999
 20
87.85012171040012
 30
0.0
 40
0.3000000000000118
100
AcDbArc
 50
270.0
 51
329.9999920671993
  0
LINE
  5
16D
330
1F
100
AcDbEntity
  8
勾配基準
  6
Continuous
 62
     7
370
    25
100
AcDbLine
 10
66.87441473325998
 20
87.55012171039994
 30
0.0
 11
75.67363427397999
 21
87.55012171039994
 31
0.0
  0
ARC
  5
16E
330
1F
100
AcDbEntity
  8
勾配基準
  6
Continuous
 62
     7
370
    25
100
AcDbCircle
 10
66.87441473325998
 20
87.85012171040012
 30
0.0
 40
0.3000000000000156
100
AcDbArc
 50
149.9999960703994
 51
270.0
  0
LINE
  5
16F
330
1F
100
AcDbEntity
  8
勾配基準
  6
Continuous
 62
     7
370
    25
100
AcDbLine
 10
67.86610850595997
 20
90.16778536694005
 30
0.0
 11
66.61460712242001
 21
88.00012172821994
 31
0.0
  0
ARC
  5
170
330
1F
100
AcDbEntity
  8
勾配基準
  6
Continuous
 62
     7
370
    25
100
AcDbCircle
 10
68.1259161168
 20
90.01778534912
 30
0.0
 40
0.3000000000000936
100
AcDbArc
 50
122.4953077179996
 51
149.9999960704002
  0
LINE
  5
171
330
1F
100
AcDbEntity
  8
勾配基準
  6
Continuous
 62
     7
370
    25
100
AcDbLine
 10
77.22493915583999
 20
96.16914293661989
 30
0.0
 11
67.96474695590001
 21
90.27081598278005
 31
0.0
  0
LINE
  5
172
330
1F
100
AcDbEntity
  8
勾配基準
  6
Continuous
 62
     7
370
    25
100
AcDbLine
 10
71.79259657296001
 20
96.16914293661989
 30
0.0
 11
77.22493915583999
 21
96.16914293661989
 31
0.0
  0
ARC
  5
173
330
1F
100
AcDbEntity
  8
勾配基準
  6
Continuous
 62
     7
370
    25
100
AcDbCircle
 10
71.79259657296001
 20
96.46914293662007
 30
0.0
 40
0.300000000000041
100
AcDbArc
 50
149.9999966894988
 51
270.0
  0
LINE
  5
174
330
1F
100
AcDbEntity
  8
勾配基準
  6
Continuous
 62
     7
370
    25
100
AcDbLine
 10
72.73439933397998
 20
98.70039289167994
 30
0.0
 11
71.5327889605
 21
96.61914295162
 31
0.0
  0
LINE
  5
175
330
1F
100
AcDbEntity
  8
勾配基準
  6
Continuous
 62
     7
370
    25
100
AcDbLine
 10
80.85974527848
 20
96.23272872516009
 30
0.0
 11
82.11124691826001
 21
98.40039286164006
 31
0.0
  0
ARC
  5
176
330
1F
100
AcDbEntity
  8
勾配基準
  6
Continuous
 62
     7
370
    25
100
AcDbCircle
 10
80.59993766599999
 20
96.38272874018003
 30
0.0
 40
0.3000000000000094
100
AcDbArc
 50
302.4953066750003
 51
329.9999966877003
  0
ARC
  5
177
330
1F
100
AcDbEntity
  8
勾配基準
  6
Continuous
 62
     7
370
    25
100
AcDbCircle
 10
72.99420694643999
 20
98.55039287666
 30
0.0
 40
0.3000000000001024
100
AcDbArc
 50
90.0
 51
149.9999966895004
  0
LINE
  5
178
330
1F
100
AcDbEntity
  8
勾配基準
  6
Continuous
 62
     7
370
    25
100
AcDbLine
 10
81.8514393058
 20
98.85039287665995
 30
0.0
 11
72.99420694643999
 21
98.85039287665995
 31
0.0
  0
ARC
  5
179
330
1F
100
AcDbEntity
  8
勾配基準
  6
Continuous
 62
     7
370
    25
100
AcDbCircle
 10
81.8514393058
 20
98.55039287666
 30
0.0
 40
0.3
100
AcDbArc
 50
329.9999966876992
 51
90.0
  0
ARC
  5
17A
330
1F
100
AcDbEntity
  8
勾配基準
  6
Continuous
 62
     7
370
    25
100
AcDbCircle
 10
54.80261885478001
 20
87.85012171040012
 30
0.0
 40
0.2999999999999886
100
AcDbArc
 50
270.0
 51
329.9999937323003
  0
LINE
  5
17B
330
1F
100
AcDbEntity
  8
勾配基準
  6
Continuous
 62
     7
370
    25
100
AcDbLine
 10
52.60422479545997
 20
87.55012171039994
 30
0.0
 11
54.80261885478001
 21
87.55012171039994
 31
0.0
  0
ARC
  5
17C
330
1F
100
AcDbEntity
  8
勾配基準
  6
Continuous
 62
     7
370
    25
100
AcDbCircle
 10
52.60422479545997
 20
87.85012171040012
 30
0.0
 40
0.299999999999993
100
AcDbArc
 50
150.0000032036
 51
270.0
  0
LINE
  5
17D
330
1F
100
AcDbEntity
  8
勾配基準
  6
Continuous
 62
     7
370
    25
100
AcDbLine
 10
58.52222080645998
 20
98.70039286214
 30
0.0
 11
52.34441716594
 21
88.00012169588013
 31
0.0
  0
LINE
  5
17E
330
1F
100
AcDbEntity
  8
勾配基準
  6
Continuous
 62
     7
370
    25
100
AcDbLine
 10
58.63949083481998
 20
93.89577821523994
 30
0.0
 11
61.24023107980003
 21
98.40039288741991
 31
0.0
  0
LINE
  5
17F
330
1F
100
AcDbEntity
  8
勾配基準
  6
Continuous
 62
     7
370
    25
100
AcDbLine
 10
61.35590056413997
 20
93.32048133879994
 30
0.0
 11
68.40802682982002
 21
98.30541654009994
 31
0.0
  0
LINE
  5
180
330
1F
100
AcDbEntity
  8
勾配基準
  6
Continuous
 62
     7
370
    25
100
AcDbLine
 10
62.71887298444
 20
87.92357950339988
 30
0.0
 11
61.35590056413997
 21
93.32048133879994
 31
0.0
  0
ARC
  5
181
330
1F
100
AcDbEntity
  8
勾配基準
  6
Continuous
 62
     7
370
    25
100
AcDbCircle
 10
62.42800539834002
 20
87.85012171040012
 30
0.0
 40
0.3000000000000018
100
AcDbArc
 50
270.0
 51
14.17351954080022
  0
LINE
  5
182
330
1F
100
AcDbEntity
  8
勾配基準
  6
Continuous
 62
     7
370
    25
100
AcDbLine
 10
59.72832360752
 20
87.55012171039994
 30
0.0
 11
62.42800539834002
 21
87.55012171039994
 31
0.0
  0
ARC
  5
183
330
1F
100
AcDbEntity
  8
勾配基準
  6
Continuous
 62
     7
370
    25
100
AcDbCircle
 10
59.72832360752
 20
87.85012171040012
 30
0.0
 40
0.2999999999999926
100
AcDbArc
 50
194.1735250258006
 51
270.0
  0
LINE
  5
184
330
1F
100
AcDbEntity
  8
勾配基準
  6
Continuous
 62
     7
370
    25
100
AcDbLine
 10
58.11953288268001
 20
92.99518399335989
 30
0.0
 11
59.43745602846002
 21
87.77666388958005
 31
0.0
  0
LINE
  5
185
330
1F
100
AcDbEntity
  8
勾配基準
  6
Continuous
 62
     7
370
    25
100
AcDbLine
 10
55.06242645952
 20
87.70012168197991
 30
0.0
 11
58.11953288268001
 21
92.99518399335989
 31
0.0
  0
LINE
  5
186
330
1F
100
AcDbEntity
  8
勾配基準
  6
Continuous
 62
     7
370
    25
100
AcDbLine
 10
65.57088170304002
 20
98.79536921316003
 30
0.0
 11
58.63949083481998
 21
93.89577821523994
 31
0.0
  0
ARC
  5
187
330
1F
100
AcDbEntity
  8
勾配基準
  6
Continuous
 62
     7
370
    25
100
AcDbCircle
 10
65.74404808129998
 20
98.55039287666
 30
0.0
 40
0.3
100
AcDbArc
 50
90.0
 51
125.2553373248998
  0
ARC
  5
188
330
1F
100
AcDbEntity
  8
勾配基準
  6
Continuous
 62
     7
370
    25
100
AcDbCircle
 10
58.78202843598001
 20
98.55039287666
 30
0.0
 40
0.3
100
AcDbArc
 50
90.0
 51
150.0000032036002
  0
LINE
  5
189
330
1F
100
AcDbEntity
  8
勾配基準
  6
Continuous
 62
     7
370
    25
100
AcDbLine
 10
60.98042345246
 20
98.85039287665995
 30
0.0
 11
58.78202843598001
 21
98.85039287665995
 31
0.0
  0
ARC
  5
18A
330
1F
100
AcDbEntity
  8
勾配基準
  6
Continuous
 62
     7
370
    25
100
AcDbCircle
 10
60.98042345246
 20
98.55039287666
 30
0.0
 40
0.3
100
AcDbArc
 50
330.0000023715995
 51
90.0
  0
LINE
  5
18B
330
1F
100
AcDbEntity
  8
勾配基準
  6
Continuous
 62
     7
370
    25
100
AcDbLine
 10
68.23486045167999
 20
98.85039287665995
 30
0.0
 11
65.74404808129998
 21
98.85039287665995
 31
0.0
  0
ARC
  5
18C
330
1F
100
AcDbEntity
  8
勾配基準
  6
Continuous
 62
     7
370
    25
100
AcDbCircle
 10
68.23486045167999
 20
98.55039287666
 30
0.0
 40
0.299999999999823
100
AcDbArc
 50
305.2553372976001
 51
90.0
  0
LINE
  5
18D
330
1F
100
AcDbEntity
  8
勾配基準
  6
Continuous
 62
     7
370
    25
100
AcDbLine
 10
81.23395021063999
 20
90.23137115109989
 30
0.0
 11
85.95033678662
 21
98.40039288432013
 31
0.0
  0
LINE
  5
18E
330
1F
100
AcDbEntity
  8
勾配基準
  6
Continuous
 62
     7
370
    25
100
AcDbLine
 10
87.03025798572
 20
90.23137115109989
 30
0.0
 11
81.23395021063999
 21
90.23137115109989
 31
0.0
  0
ARC
  5
18F
330
1F
100
AcDbEntity
  8
勾配基準
  6
Continuous
 62
     7
370
    25
100
AcDbCircle
 10
87.03025798572
 20
89.93137115109994
 30
0.0
 40
0.3000000000001024
100
AcDbArc
 50
330.0000080750012
 51
90.0
  0
LINE
  5
190
330
1F
100
AcDbEntity
  8
勾配基準
  6
Continuous
 62
     7
370
    25
100
AcDbLine
 10
86.08845609426001
 20
87.70012174701992
 30
0.0
 11
87.29006562798
 21
89.78137118771997
 31
0.0
  0
ARC
  5
191
330
1F
100
AcDbEntity
  8
勾配基準
  6
Continuous
 62
     7
370
    25
100
AcDbCircle
 10
85.82864845198
 20
87.85012171040012
 30
0.0
 40
0.2999999999999886
100
AcDbArc
 50
270.0
 51
330.0000080750008
  0
LINE
  5
192
330
1F
100
AcDbEntity
  8
勾配基準
  6
Continuous
 62
     7
370
    25
100
AcDbLine
 10
77.10950423473997
 20
87.55012171039994
 30
0.0
 11
85.82864845198
 21
87.55012171039994
 31
0.0
  0
ARC
  5
193
330
1F
100
AcDbEntity
  8
勾配基準
  6
Continuous
 62
     7
370
    25
100
AcDbCircle
 10
77.10950423473997
 20
87.85012171040012
 30
0.0
 40
0.3000000000000232
100
AcDbArc
 50
149.9999975059993
 51
270.0
  0
LINE
  5
194
330
1F
100
AcDbEntity
  8
勾配基準
  6
Continuous
 62
     7
370
    25
100
AcDbLine
 10
83.02750167939999
 20
98.70039288798012
 30
0.0
 11
76.84969662013998
 21
88.00012172172
 31
0.0
  0
ARC
  5
195
330
1F
100
AcDbEntity
  8
勾配基準
  6
Continuous
 62
     7
370
    25
100
AcDbCircle
 10
83.28730929400001
 20
98.55039287666
 30
0.0
 40
0.3000000000001024
100
AcDbArc
 50
90.0
 51
149.9999975060001
  0
ARC
  5
196
330
1F
100
AcDbEntity
  8
勾配基準
  6
Continuous
 62
     7
370
    25
100
AcDbCircle
 10
85.69052916106
 20
98.55039287666
 30
0.0
 40
0.3
100
AcDbArc
 50
330.000001687101
 51
90.0
  0
LINE
  5
197
330
1F
100
AcDbEntity
  8
勾配基準
  6
Continuous
 62
     7
370
    25
100
AcDbLine
 10
85.69052916106
 20
98.85039287665995
 30
0.0
 11
83.28730929400001
 21
98.85039287665995
 31
0.0
  0
LINE
  5
198
330
1F
100
AcDbEntity
  8
勾配基準
  6
Continuous
 62
     7
370
    25
100
AcDbLine
 10
63.97123689106002
 20
94.38114833036002
 30
0.0
 11
62.91307833868001
 21
93.63316788307998
 31
0.0
  0
ARC
  5
199
330
1F
100
AcDbEntity
  8
勾配基準
  6
Continuous
 62
     7
370
    25
100
AcDbCircle
 10
64.14440328545999
 20
94.13617200528006
 30
0.0
 40
0.3000000000001136
100
AcDbArc
 50
90.0
 51
125.2553410978998
  0
LINE
  5
19A
330
1F
100
AcDbEntity
  8
勾配基準
  6
Continuous
 62
     7
370
    25
100
AcDbLine
 10
72.27700763408001
 20
94.43617200528001
 30
0.0
 11
64.14440328545999
 21
94.43617200528001
 31
0.0
  0
ARC
  5
19B
330
1F
100
AcDbEntity
  8
勾配基準
  6
Continuous
 62
     7
370
    25
100
AcDbCircle
 10
72.27700763408001
 20
94.13617200528006
 30
0.0
 40
0.3000000000001136
100
AcDbArc
 50
302.4953102073002
 51
90.0
  0
LINE
  5
19C
330
1F
100
AcDbEntity
  8
勾配基準
  6
Continuous
 62
     7
370
    25
100
AcDbLine
 10
69.50743643051999
 20
92.01639107414007
 30
0.0
 11
72.43817680597999
 21
93.88314137861994
 31
0.0
  0
ARC
  5
19D
330
1F
100
AcDbEntity
  8
勾配基準
  6
Continuous
 62
     7
370
    25
100
AcDbCircle
 10
69.34626725862
 20
92.26942170079997
 30
0.0
 40
0.3000000000000314
100
AcDbArc
 50
270.0
 51
302.4953102072999
  0
LINE
  5
19E
330
1F
100
AcDbEntity
  8
勾配基準
  6
Continuous
 62
     7
370
    25
100
AcDbLine
 10
63.36878691932003
 20
91.96942170080001
 30
0.0
 11
69.34626725862
 21
91.96942170080001
 31
0.0
  0
ARC
  5
19F
330
1F
100
AcDbEntity
  8
勾配基準
  6
Continuous
 62
     7
370
    25
100
AcDbCircle
 10
63.36878691932003
 20
92.26942170079997
 30
0.0
 40
0.3000000000000092
100
AcDbArc
 50
194.1735193942001
 51
270.0
  0
LINE
  5
1A0
330
1F
100
AcDbEntity
  8
勾配基準
  6
Continuous
 62
     7
370
    25
100
AcDbLine
 10
62.79537714676002
 20
93.3147337657399
 30
0.0
 11
63.07791933302002
 21
92.19596390856009
 31
0.0
  0
ARC
  5
1A1
330
1F
100
AcDbEntity
  8
勾配基準
  6
Continuous
 62
     7
370
    25
100
AcDbCircle
 10
63.08624473306003
 20
93.38819155798001
 30
0.0
 40
0.3000000000000258
100
AcDbArc
 50
125.2553410979006
 51
194.1735193941993
  0
CIRCLE
  5
1A2
330
1F
100
AcDbEntity
  8
勾配基準
  6
Continuous
 62
     7
370
    25
100
AcDbCircle
 10
71.0
 20
101.0
 30
0.0
 40
25.99999971099998
  0
CIRCLE
  5
1A3
330
1F
100
AcDbEntity
  8
勾配基準
  6
Continuous
 62
     7
370
    25
100
AcDbCircle
 10
71.0
 20
101.0
 30
0.0
 40
25.499999711
  0
CIRCLE
  5
1A4
330
1F
100
AcDbEntity
  8
勾配基準
  6
Continuous
 62
     7
370
    25
100
AcDbCircle
 10
71.0
 20
101.0
 30
0.0
 40
2.000000000000012
  0
SPLINE
  5
1A5
330
1F
100
AcDbEntity
  8
勾配基準
  6
Continuous
 62
     7
370
    25
100
AcDbSpline
210
0.0
220
0.0
230
1.0
 70
     8
 71
     3
 72
    10
 73
     6
 74
     0
 42
0.000000001
 43
0.0000000001
 40
0.0
 40
0.0
 40
0.0
 40
0.0
 40
0.2506757608824259
 40
0.501352188544921
 40
1.0
 40
1.0
 40
1.0
 40
1.0
 10
76.45046518114879
 20
133.0397008305124
 30
0.0
 10
76.43655787834376
 20
133.0418843449561
 30
0.0
 10
76.40874323574116
 20
133.0462513796508
 30
0.0
 10
76.35286436725232
 20
133.0522049781855
 30
0.0
 10
76.31077432564433
 20
133.0532007157497
 30
0.0
 10
76.2827649459444
 20
133.0538633425956
 30
0.0
  0
ARC
  5
1A6
330
1F
100
AcDbEntity
  8
勾配基準
  6
Continuous
 62
     7
370
    25
100
AcDbCircle
 10
71.0
 20
101.0
 30
0.0
 40
32.50000000000002
100
AcDbArc
 50
99.65450383689999
 51
80.34549616310001
  0
SPLINE
  5
1A7
330
1F
100
AcDbEntity
  8
勾配基準
  6
Continuous
 62
     7
370
    25
100
AcDbSpline
210
0.0
220
0.0
230
1.0
 70
     8
 71
     3
 72
    10
 73
     6
 74
     0
 42
0.000000001
 43
0.0000000001
 40
0.0
 40
0.0
 40
0.0
 40
0.0
 40
0.2506757608818073
 40
0.5013521885437329
 40
1.0
 40
1.0
 40
1.0
 40
1.0
 10
65.71723505404213
 20
133.0538633425956
 30
0.0
 10
65.70315853125203
 20
133.0536835850519
 30
0.0
 10
65.67500544822923
 20
133.0533240694861
 30
0.0
 10
65.61891953713234
 20
133.0498220906818
 30
0.0
 10
65.57725862716353
 20
133.0437449469093
 30
0.0
 10
65.54953481883774
 20
133.0397008305124
 30
0.0
  0
LINE
  5
1A8
330
1F
100
AcDbEntity
  8
勾配基準
  6
Continuous
 62
     7
370
    25
100
AcDbLine
 10
65.71723505404003
 20
133.0538633425999
 30
0.0
 11
76.28276494594002
 21
133.0538633425999
 31
0.0
  0
LINE
  5
1A9
330
1F
100
AcDbEntity
  8
勾配基準
  6
DASHDOT
 62
     7
370
    13
100
AcDbLine
 10
71.0
 20
140.85339000574
 30
0.0
 11
71.0
 21
62.73544382705995
 31
0.0
  0
LINE
  5
1AA
330
1F
100
AcDbEntity
  8
勾配基準
  6
Continuous
 62
     7
370
    25
100
AcDbLine
 10
155.0000001142
 20
126.7999990135399
 30
0.0
 11
148.29999962134
 21
126.7999990135399
 31
0.0
  0
LINE
  5
1AB
330
1F
100
AcDbEntity
  8
勾配基準
  6
Continuous
 62
     7
370
    25
100
AcDbLine
 10
148.29999962134
 20
75.20000098646005
 30
0.0
 11
155.0000001142
 21
75.20000098646005
 31
0.0
  0
LINE
  5
1AC
330
1F
100
AcDbEntity
  8
勾配基準
  6
Continuous
 62
     7
370
    25
100
AcDbLine
 10
155.0000001142
 20
68.50000119207994
 30
0.0
 11
157.0
 21
68.53491088748001
 31
0.0
  0
LINE
  5
1AD
330
1F
100
AcDbEntity
  8
勾配基準
  6
Continuous
 62
     7
370
    25
100
AcDbLine
 10
148.00000013096
 20
127.00000053644
 30
0.0
 11
147.500000049
 21
127.00000053644
 31
0.0
  0
LINE
  5
1AE
330
1F
100
AcDbEntity
  8
勾配基準
  6
Continuous
 62
     7
370
    25
100
AcDbLine
 10
147.500000049
 20
74.99999946356002
 30
0.0
 11
148.00000013096
 21
74.99999946356002
 31
0.0
  0
ARC
  5
1AF
330
1F
100
AcDbEntity
  8
勾配基準
  6
Continuous
 62
     7
370
    25
100
AcDbCircle
 10
147.50000000008
 20
75.5000002889999
 30
0.0
 40
0.5
100
AcDbArc
 50
180.0
 51
270.0
  0
ARC
  5
1B0
330
1F
100
AcDbEntity
  8
勾配基準
  6
Continuous
 62
     7
370
    25
100
AcDbCircle
 10
147.50000000008
 20
126.4999997110001
 30
0.0
 40
0.5
100
AcDbArc
 50
90.0
 51
180.0
  0
LINE
  5
1B1
330
1F
100
AcDbEntity
  8
勾配基準
  6
Continuous
 62
     7
370
    25
100
AcDbLine
 10
148.00000013096
 20
75.50000047684011
 30
0.0
 11
148.29999962134
 21
75.50000047684011
 31
0.0
  0
LINE
  5
1B2
330
1F
100
AcDbEntity
  8
勾配基準
  6
Continuous
 62
     7
370
    25
100
AcDbLine
 10
148.29999962134
 20
126.4999995231599
 30
0.0
 11
148.00000013096
 21
126.4999995231599
 31
0.0
  0
LINE
  5
1B3
330
1F
100
AcDbEntity
  8
勾配基準
  6
Continuous
 62
     7
370
    25
100
AcDbLine
 10
146.80000030678
 20
113.65721209346
 30
0.0
 11
146.99999996704
 21
113.65721209346
 31
0.0
  0
LINE
  5
1B4
330
1F
100
AcDbEntity
  8
勾配基準
  6
Continuous
 62
     7
370
    25
100
AcDbLine
 10
146.99999996704
 20
113.0429303497001
 30
0.0
 11
146.80000030678
 21
113.0429303497001
 31
0.0
  0
LINE
  5
1B5
330
1F
100
AcDbEntity
  8
勾配基準
  6
Continuous
 62
     7
370
    25
100
AcDbLine
 10
146.99999996704
 20
115.00347799062
 30
0.0
 11
146.80000030678
 21
115.00347799062
 31
0.0
  0
LINE
  5
1B6
330
1F
100
AcDbEntity
  8
勾配基準
  6
Continuous
 62
     7
370
    25
100
AcDbLine
 10
146.80000030678
 20
111.87405346334
 30
0.0
 11
146.99999996704
 21
111.87405346334
 31
0.0
  0
LINE
  5
1B7
330
1F
100
AcDbEntity
  8
勾配基準
  6
Continuous
 62
     7
370
    25
100
AcDbLine
 10
146.80000030678
 20
106.6257960386599
 30
0.0
 11
146.99999996704
 21
106.6257960386599
 31
0.0
  0
LINE
  5
1B8
330
1F
100
AcDbEntity
  8
勾配基準
  6
Continuous
 62
     7
370
    25
100
AcDbLine
 10
146.99999996704
 20
105.6890056692
 30
0.0
 11
146.80000030678
 21
105.6890056692
 31
0.0
  0
LINE
  5
1B9
330
1F
100
AcDbEntity
  8
勾配基準
  6
Continuous
 62
     7
370
    25
100
AcDbLine
 10
146.80000030678
 20
102.9222153350599
 30
0.0
 11
146.99999996704
 21
102.9222153350599
 31
0.0
  0
LINE
  5
1BA
330
1F
100
AcDbEntity
  8
勾配基準
  6
Continuous
 62
     7
370
    25
100
AcDbLine
 10
146.99999996704
 20
110.48617886752
 30
0.0
 11
146.80000030678
 21
110.48617886752
 31
0.0
  0
LINE
  5
1BB
330
1F
100
AcDbEntity
  8
勾配基準
  6
Continuous
 62
     7
370
    25
100
AcDbLine
 10
148.29999962134
 20
102.2499999720601
 30
0.0
 11
148.29999962134
 21
126.7999990135399
 31
0.0
  0
LINE
  5
1BC
330
1F
100
AcDbEntity
  8
勾配基準
  6
Continuous
 62
     7
370
    25
100
AcDbLine
 10
148.29999962134
 20
102.2499999720601
 30
0.0
 11
155.0000001142
 21
102.2499999720601
 31
0.0
  0
LINE
  5
1BD
330
1F
100
AcDbEntity
  8
勾配基準
  6
Continuous
 62
     7
370
    25
100
AcDbLine
 10
155.0000001142
 20
99.7500000279399
 30
0.0
 11
148.29999962134
 21
99.7500000279399
 31
0.0
  0
LINE
  5
1BE
330
1F
100
AcDbEntity
  8
勾配基準
  6
Continuous
 62
     7
370
    25
100
AcDbLine
 10
148.29999962134
 20
75.20000098646005
 30
0.0
 11
148.29999962134
 21
99.7500000279399
 31
0.0
  0
LINE
  5
1BF
330
1F
100
AcDbEntity
  8
勾配基準
  6
Continuous
 62
     7
370
    25
100
AcDbLine
 10
157.0
 20
133.0052839815601
 30
0.0
 11
155.0000001142
 21
133.0397019386201
 31
0.0
  0
LINE
  5
1C0
330
1F
100
AcDbEntity
  8
勾配基準
  6
Continuous
 62
     7
370
    25
100
AcDbLine
 10
157.0
 20
133.0052839815601
 30
0.0
 11
157.0
 21
68.53491088748001
 31
0.0
  0
LINE
  5
1C1
330
1F
100
AcDbEntity
  8
勾配基準
  6
Continuous
 62
     7
370
    25
100
AcDbLine
 10
155.0000001142
 20
68.50000119207994
 30
0.0
 11
155.0000001142
 21
133.0397019386201
 31
0.0
  0
LINE
  5
1C2
330
1F
100
AcDbEntity
  8
勾配基準
  6
Continuous
 62
     7
370
    25
100
AcDbLine
 10
148.00000013096
 20
100.2499999934801
 30
0.0
 11
155.0000001142
 21
100.2499999934801
 31
0.0
  0
LINE
  5
1C3
330
1F
100
AcDbEntity
  8
勾配基準
  6
Continuous
 62
     7
370
    25
100
AcDbLine
 10
148.00000013096
 20
101.7500000065199
 30
0.0
 11
148.00000013096
 21
100.2499999934801
 31
0.0
  0
LINE
  5
1C4
330
1F
100
AcDbEntity
  8
勾配基準
  6
Continuous
 62
     7
370
    25
100
AcDbLine
 10
148.00000013096
 20
101.7500000065199
 30
0.0
 11
155.0000001142
 21
101.7500000065199
 31
0.0
  0
LINE
  5
1C5
330
1F
100
AcDbEntity
  8
勾配基準
  6
Continuous
 62
     7
370
    25
100
AcDbLine
 10
148.00000013096
 20
100.2499999934801
 30
0.0
 11
148.00000013096
 21
91.73196668178002
 31
0.0
  0
LINE
  5
1C6
330
1F
100
AcDbEntity
  8
勾配基準
  6
Continuous
 62
     7
370
    25
100
AcDbLine
 10
148.00000013096
 20
91.73196668178002
 30
0.0
 11
148.00000013096
 21
74.99999946356002
 31
0.0
  0
LINE
  5
1C7
330
1F
100
AcDbEntity
  8
勾配基準
  6
Continuous
 62
     7
370
    25
100
AcDbLine
 10
148.00000013096
 20
127.00000053644
 30
0.0
 11
148.00000013096
 21
101.7500000065199
 31
0.0
  0
LINE
  5
1C8
330
1F
100
AcDbEntity
  8
勾配基準
  6
Continuous
 62
     7
370
    25
100
AcDbLine
 10
146.99999996704
 20
75.50000047684011
 30
0.0
 11
146.99999996704
 21
126.4999995231599
 31
0.0
  0
LINE
  5
1C9
330
1F
100
AcDbEntity
  8
勾配基準
  6
Continuous
 62
     7
370
    25
100
AcDbLine
 10
146.80000030678
 20
89.78137115387995
 30
0.0
 11
146.99999996704
 21
89.78137115387995
 31
0.0
  0
LINE
  5
1CA
330
1F
100
AcDbEntity
  8
勾配基準
  6
Continuous
 62
     7
370
    25
100
AcDbLine
 10
146.80000030678
 20
89.78137115387995
 30
0.0
 11
146.80000030678
 21
90.23137132078
 31
0.0
  0
LINE
  5
1CB
330
1F
100
AcDbEntity
  8
勾配基準
  6
Continuous
 62
     7
370
    25
100
AcDbLine
 10
146.80000030678
 20
90.23137132078
 30
0.0
 11
146.99999996704
 21
90.23137132078
 31
0.0
  0
LINE
  5
1CC
330
1F
100
AcDbEntity
  8
勾配基準
  6
Continuous
 62
     7
370
    25
100
AcDbLine
 10
146.80000030678
 20
87.7001213133201
 30
0.0
 11
146.99999996704
 21
87.7001213133201
 31
0.0
  0
LINE
  5
1CD
330
1F
100
AcDbEntity
  8
勾配基準
  6
Continuous
 62
     7
370
    25
100
AcDbLine
 10
146.80000030678
 20
87.7001213133201
 30
0.0
 11
146.80000030678
 21
89.78137115387995
 31
0.0
  0
LINE
  5
1CE
330
1F
100
AcDbEntity
  8
勾配基準
  6
Continuous
 62
     7
370
    25
100
AcDbLine
 10
146.80000030678
 20
87.55012156813996
 30
0.0
 11
146.99999996704
 21
87.55012156813996
 31
0.0
  0
LINE
  5
1CF
330
1F
100
AcDbEntity
  8
勾配基準
  6
Continuous
 62
     7
370
    25
100
AcDbLine
 10
146.80000030678
 20
87.55012156813996
 30
0.0
 11
146.80000030678
 21
87.7001213133201
 31
0.0
  0
LINE
  5
1D0
330
1F
100
AcDbEntity
  8
勾配基準
  6
Continuous
 62
     7
370
    25
100
AcDbLine
 10
146.80000030678
 20
98.40039277822007
 30
0.0
 11
146.99999996704
 21
98.40039277822007
 31
0.0
  0
LINE
  5
1D1
330
1F
100
AcDbEntity
  8
勾配基準
  6
Continuous
 62
     7
370
    25
100
AcDbLine
 10
146.80000030678
 20
98.85039294510011
 30
0.0
 11
146.99999996704
 21
98.85039294510011
 31
0.0
  0
LINE
  5
1D2
330
1F
100
AcDbEntity
  8
勾配基準
  6
Continuous
 62
     7
370
    25
100
AcDbLine
 10
146.80000030678
 20
98.40039277822007
 30
0.0
 11
146.80000030678
 21
98.85039294510011
 31
0.0
  0
LINE
  5
1D3
330
1F
100
AcDbEntity
  8
勾配基準
  6
Continuous
 62
     7
370
    25
100
AcDbLine
 10
146.80000030678
 20
90.23137132078
 30
0.0
 11
146.80000030678
 21
98.40039277822007
 31
0.0
  0
LINE
  5
1D4
330
1F
100
AcDbEntity
  8
勾配基準
  6
Continuous
 62
     7
370
    25
100
AcDbLine
 10
146.80000030678
 20
113.65721209346
 30
0.0
 11
146.80000030678
 21
114.0387293174799
 31
0.0
  0
LINE
  5
1D5
330
1F
100
AcDbEntity
  8
勾配基準
  6
Continuous
 62
     7
370
    25
100
AcDbLine
 10
146.80000030678
 20
114.0387293174799
 30
0.0
 11
146.99999996704
 21
114.0387293174799
 31
0.0
  0
LINE
  5
1D6
330
1F
100
AcDbEntity
  8
勾配基準
  6
Continuous
 62
     7
370
    25
100
AcDbLine
 10
146.80000030678
 20
114.63189145922
 30
0.0
 11
146.99999996704
 21
114.63189145922
 31
0.0
  0
LINE
  5
1D7
330
1F
100
AcDbEntity
  8
勾配基準
  6
Continuous
 62
     7
370
    25
100
AcDbLine
 10
146.80000030678
 20
114.0387293174799
 30
0.0
 11
146.80000030678
 21
114.63189145922
 31
0.0
  0
LINE
  5
1D8
330
1F
100
AcDbEntity
  8
勾配基準
  6
Continuous
 62
     7
370
    25
100
AcDbLine
 10
146.80000030678
 20
112.7775658145599
 30
0.0
 11
146.99999996704
 21
112.7775658145599
 31
0.0
  0
LINE
  5
1D9
330
1F
100
AcDbEntity
  8
勾配基準
  6
Continuous
 62
     7
370
    25
100
AcDbLine
 10
146.80000030678
 20
112.7775658145599
 30
0.0
 11
146.80000030678
 21
113.0429303497001
 31
0.0
  0
LINE
  5
1DA
330
1F
100
AcDbEntity
  8
勾配基準
  6
Continuous
 62
     7
370
    25
100
AcDbLine
 10
146.80000030678
 20
112.47686690092
 30
0.0
 11
146.99999996704
 21
112.47686690092
 31
0.0
  0
LINE
  5
1DB
330
1F
100
AcDbEntity
  8
勾配基準
  6
Continuous
 62
     7
370
    25
100
AcDbLine
 10
146.80000030678
 20
112.47686690092
 30
0.0
 11
146.80000030678
 21
112.7775658145599
 31
0.0
  0
LINE
  5
1DC
330
1F
100
AcDbEntity
  8
勾配基準
  6
Continuous
 62
     7
370
    25
100
AcDbLine
 10
146.80000030678
 20
114.63189145922
 30
0.0
 11
146.80000030678
 21
115.00347799062
 31
0.0
  0
LINE
  5
1DD
330
1F
100
AcDbEntity
  8
勾配基準
  6
Continuous
 62
     7
370
    25
100
AcDbLine
 10
146.80000030678
 20
112.061235331
 30
0.0
 11
146.99999996704
 21
112.061235331
 31
0.0
  0
LINE
  5
1DE
330
1F
100
AcDbEntity
  8
勾配基準
  6
Continuous
 62
     7
370
    25
100
AcDbLine
 10
146.80000030678
 20
112.061235331
 30
0.0
 11
146.80000030678
 21
112.47686690092
 31
0.0
  0
LINE
  5
1DF
330
1F
100
AcDbEntity
  8
勾配基準
  6
Continuous
 62
     7
370
    25
100
AcDbLine
 10
146.80000030678
 20
111.87405346334
 30
0.0
 11
146.80000030678
 21
112.061235331
 31
0.0
  0
LINE
  5
1E0
330
1F
100
AcDbEntity
  8
勾配基準
  6
Continuous
 62
     7
370
    25
100
AcDbLine
 10
155.0000001142
 20
133.05386176704
 30
0.0
 11
157.0
 21
133.0189520716601
 31
0.0
  0
LINE
  5
1E1
330
1F
100
AcDbEntity
  8
勾配基準
  6
Continuous
 62
     7
370
    25
100
AcDbLine
 10
146.80000030678
 20
106.6257960386599
 30
0.0
 11
146.80000030678
 21
107.0044405981801
 31
0.0
  0
LINE
  5
1E2
330
1F
100
AcDbEntity
  8
勾配基準
  6
Continuous
 62
     7
370
    25
100
AcDbLine
 10
146.80000030678
 20
107.0044405981801
 30
0.0
 11
146.99999996704
 21
107.0044405981801
 31
0.0
  0
LINE
  5
1E3
330
1F
100
AcDbEntity
  8
勾配基準
  6
Continuous
 62
     7
370
    25
100
AcDbLine
 10
146.80000030678
 20
108.1739610284601
 30
0.0
 11
146.99999996704
 21
108.1739610284601
 31
0.0
  0
LINE
  5
1E4
330
1F
100
AcDbEntity
  8
勾配基準
  6
Continuous
 62
     7
370
    25
100
AcDbLine
 10
146.80000030678
 20
107.0044405981801
 30
0.0
 11
146.80000030678
 21
108.1739610284601
 31
0.0
  0
LINE
  5
1E5
330
1F
100
AcDbEntity
  8
勾配基準
  6
Continuous
 62
     7
370
    25
100
AcDbLine
 10
146.80000030678
 20
109.76931566744
 30
0.0
 11
146.99999996704
 21
109.76931566744
 31
0.0
  0
LINE
  5
1E6
330
1F
100
AcDbEntity
  8
勾配基準
  6
Continuous
 62
     7
370
    25
100
AcDbLine
 10
146.80000030678
 20
108.1739610284601
 30
0.0
 11
146.80000030678
 21
109.76931566744
 31
0.0
  0
LINE
  5
1E7
330
1F
100
AcDbEntity
  8
勾配基準
  6
Continuous
 62
     7
370
    25
100
AcDbLine
 10
146.80000030678
 20
105.38900571316
 30
0.0
 11
146.99999996704
 21
105.38900571316
 31
0.0
  0
LINE
  5
1E8
330
1F
100
AcDbEntity
  8
勾配基準
  6
Continuous
 62
     7
370
    25
100
AcDbLine
 10
146.80000030678
 20
105.38900571316
 30
0.0
 11
146.80000030678
 21
105.6890056692
 31
0.0
  0
LINE
  5
1E9
330
1F
100
AcDbEntity
  8
勾配基準
  6
Continuous
 62
     7
370
    25
100
AcDbLine
 10
146.80000030678
 20
105.23319684342
 30
0.0
 11
146.99999996704
 21
105.23319684342
 31
0.0
  0
LINE
  5
1EA
330
1F
100
AcDbEntity
  8
勾配基準
  6
Continuous
 62
     7
370
    25
100
AcDbLine
 10
146.80000030678
 20
105.23319684342
 30
0.0
 11
146.80000030678
 21
105.38900571316
 31
0.0
  0
LINE
  5
1EB
330
1F
100
AcDbEntity
  8
勾配基準
  6
Continuous
 62
     7
370
    25
100
AcDbLine
 10
146.80000030678
 20
105.1424753144399
 30
0.0
 11
146.99999996704
 21
105.1424753144399
 31
0.0
  0
LINE
  5
1EC
330
1F
100
AcDbEntity
  8
勾配基準
  6
Continuous
 62
     7
370
    25
100
AcDbLine
 10
146.80000030678
 20
105.1424753144399
 30
0.0
 11
146.80000030678
 21
105.23319684342
 31
0.0
  0
LINE
  5
1ED
330
1F
100
AcDbEntity
  8
勾配基準
  6
Continuous
 62
     7
370
    25
100
AcDbLine
 10
146.80000030678
 20
104.1336788087999
 30
0.0
 11
146.99999996704
 21
104.1336788087999
 31
0.0
  0
LINE
  5
1EE
330
1F
100
AcDbEntity
  8
勾配基準
  6
Continuous
 62
     7
370
    25
100
AcDbLine
 10
146.80000030678
 20
104.1336788087999
 30
0.0
 11
146.80000030678
 21
105.1424753144399
 31
0.0
  0
LINE
  5
1EF
330
1F
100
AcDbEntity
  8
勾配基準
  6
Continuous
 62
     7
370
    25
100
AcDbLine
 10
146.80000030678
 20
102.9222153350599
 30
0.0
 11
146.80000030678
 21
104.1336788087999
 31
0.0
  0
LINE
  5
1F0
330
1F
100
AcDbEntity
  8
勾配基準
  6
Continuous
 62
     7
370
    25
100
AcDbLine
 10
146.80000030678
 20
109.76931566744
 30
0.0
 11
146.80000030678
 21
110.48617886752
 31
0.0
  0
LINE
  5
1F1
330
1F
100
AcDbEntity
  8
勾配基準
  6
Continuous
 62
     7
370
    25
100
AcDbLine
 10
147.500000049
 20
127.00000053644
 30
0.0
 11
147.500000049
 21
74.99999946356002
 31
0.0
  0
LINE
  5
1F2
330
1F
100
AcDbEntity
  8
勾配基準
  6
Continuous
 62
     7
370
    25
100
AcDbLine
 10
201.8
 20
102.9222152913401
 30
0.0
 11
202.0
 21
102.9222152913401
 31
0.0
  0
LINE
  5
1F3
330
1F
100
AcDbEntity
  8
勾配基準
  6
Continuous
 62
     7
370
    25
100
AcDbLine
 10
202.0
 20
110.48617910958
 30
0.0
 11
201.8
 21
110.48617910958
 31
0.0
  0
LINE
  5
1F4
330
1F
100
AcDbEntity
  8
勾配基準
  6
Continuous
 62
     7
370
    25
100
AcDbLine
 10
202.0
 20
105.68900539848
 30
0.0
 11
201.8
 21
105.68900539848
 31
0.0
  0
LINE
  5
1F5
330
1F
100
AcDbEntity
  8
勾配基準
  6
Continuous
 62
     7
370
    25
100
AcDbLine
 10
201.8
 20
106.62579626856
 30
0.0
 11
202.0
 21
106.62579626856
 31
0.0
  0
LINE
  5
1F6
330
1F
100
AcDbEntity
  8
勾配基準
  6
Continuous
 62
     7
370
    25
100
AcDbLine
 10
210.0
 20
126.7999997110001
 30
0.0
 11
203.3
 21
126.7999997110001
 31
0.0
  0
LINE
  5
1F7
330
1F
100
AcDbEntity
  8
勾配基準
  6
Continuous
 62
     7
370
    25
100
AcDbLine
 10
210.0
 20
126.4999997110001
 30
0.0
 11
203.3
 21
126.4999997110001
 31
0.0
  0
LINE
  5
1F8
330
1F
100
AcDbEntity
  8
勾配基準
  6
Continuous
 62
     7
370
    25
100
AcDbLine
 10
203.3
 20
126.7999997110001
 30
0.0
 11
203.3
 21
126.4999997110001
 31
0.0
  0
LINE
  5
1F9
330
1F
100
AcDbEntity
  8
勾配基準
  6
Continuous
 62
     7
370
    25
100
AcDbLine
 10
210.0
 20
126.4999997110001
 30
0.0
 11
210.0
 21
126.7999997110001
 31
0.0
  0
LINE
  5
1FA
330
1F
100
AcDbEntity
  8
勾配基準
  6
Continuous
 62
     7
370
    25
100
AcDbLine
 10
203.3
 20
75.5000002889999
 30
0.0
 11
210.0
 21
75.5000002889999
 31
0.0
  0
LINE
  5
1FB
330
1F
100
AcDbEntity
  8
勾配基準
  6
Continuous
 62
     7
370
    25
100
AcDbLine
 10
203.3
 20
75.20000028899995
 30
0.0
 11
210.0
 21
75.20000028899995
 31
0.0
  0
LINE
  5
1FC
330
1F
100
AcDbEntity
  8
勾配基準
  6
Continuous
 62
     7
370
    25
100
AcDbLine
 10
203.3
 20
75.5000002889999
 30
0.0
 11
203.3
 21
75.20000028899995
 31
0.0
  0
LINE
  5
1FD
330
1F
100
AcDbEntity
  8
勾配基準
  6
Continuous
 62
     7
370
    25
100
AcDbLine
 10
210.0
 20
75.20000028899995
 30
0.0
 11
210.0
 21
75.5000002889999
 31
0.0
  0
LINE
  5
1FE
330
1F
100
AcDbEntity
  8
勾配基準
  6
Continuous
 62
     7
370
    25
100
AcDbLine
 10
212.0
 20
103.0872686779001
 30
0.0
 11
202.0
 21
103.0
 31
0.0
  0
LINE
  5
1FF
330
1F
100
AcDbEntity
  8
勾配基準
  6
Continuous
 62
     7
370
    25
100
AcDbLine
 10
212.0
 20
98.91273132207994
 30
0.0
 11
212.0
 21
103.0872686779001
 31
0.0
  0
LINE
  5
200
330
1F
100
AcDbEntity
  8
勾配基準
  6
Continuous
 62
     7
370
    25
100
AcDbLine
 10
202.0
 20
99.0
 30
0.0
 11
212.0
 21
98.91273132207994
 31
0.0
  0
LINE
  5
201
330
1F
100
AcDbEntity
  8
勾配基準
  6
Continuous
 62
     7
370
    25
100
AcDbLine
 10
202.0
 20
103.0
 30
0.0
 11
202.0
 21
99.0
 31
0.0
  0
LINE
  5
202
330
1F
100
AcDbEntity
  8
勾配基準
  6
Continuous
 62
     7
370
    25
100
AcDbLine
 10
202.0
 20
105.18184885338
 30
0.0
 11
201.8
 21
105.18184885338
 31
0.0
  0
LINE
  5
203
330
1F
100
AcDbEntity
  8
勾配基準
  6
Continuous
 62
     7
370
    25
100
AcDbLine
 10
202.0
 20
105.18184885338
 30
0.0
 11
202.0
 21
108.6924433878401
 31
0.0
  0
LINE
  5
204
330
1F
100
AcDbEntity
  8
勾配基準
  6
Continuous
 62
     7
370
    25
100
AcDbLine
 10
201.8
 20
108.6924433878401
 30
0.0
 11
202.0
 21
108.6924433878401
 31
0.0
  0
LINE
  5
205
330
1F
100
AcDbEntity
  8
勾配基準
  6
Continuous
 62
     7
370
    25
100
AcDbLine
 10
201.8
 20
108.6924433878401
 30
0.0
 11
201.8
 21
109.8416354108999
 31
0.0
  0
LINE
  5
206
330
1F
100
AcDbEntity
  8
勾配基準
  6
Continuous
 62
     7
370
    25
100
AcDbLine
 10
202.0
 20
109.8416354108999
 30
0.0
 11
201.8
 21
109.8416354108999
 31
0.0
  0
LINE
  5
207
330
1F
100
AcDbEntity
  8
勾配基準
  6
Continuous
 62
     7
370
    25
100
AcDbLine
 10
202.0
 20
109.8416354108999
 30
0.0
 11
202.0
 21
126.4999997110001
 31
0.0
  0
ARC
  5
208
330
1F
100
AcDbEntity
  8
勾配基準
  6
Continuous
 62
     7
370
    25
100
AcDbCircle
 10
202.5
 20
126.4999997110001
 30
0.0
 40
0.5000000000000229
100
AcDbArc
 50
90.0
 51
180.0
  0
LINE
  5
209
330
1F
100
AcDbEntity
  8
勾配基準
  6
Continuous
 62
     7
370
    25
100
AcDbLine
 10
202.5
 20
126.9999997110001
 30
0.0
 11
203.0
 21
126.9999997110001
 31
0.0
  0
LINE
  5
20A
330
1F
100
AcDbEntity
  8
勾配基準
  6
Continuous
 62
     7
370
    25
100
AcDbLine
 10
203.0
 20
126.9999997110001
 30
0.0
 11
203.0
 21
126.4999997110001
 31
0.0
  0
LINE
  5
20B
330
1F
100
AcDbEntity
  8
勾配基準
  6
Continuous
 62
     7
370
    25
100
AcDbLine
 10
210.0
 20
126.4999997110001
 30
0.0
 11
203.0
 21
126.4999997110001
 31
0.0
  0
LINE
  5
20C
330
1F
100
AcDbEntity
  8
勾配基準
  6
Continuous
 62
     7
370
    25
100
AcDbLine
 10
210.0
 20
133.0538633425999
 30
0.0
 11
210.0
 21
126.4999997110001
 31
0.0
  0
LINE
  5
20D
330
1F
100
AcDbEntity
  8
勾配基準
  6
Continuous
 62
     7
370
    25
100
AcDbLine
 10
210.0
 20
133.0538633425999
 30
0.0
 11
212.0
 21
133.0189532127399
 31
0.0
  0
LINE
  5
20E
330
1F
100
AcDbEntity
  8
勾配基準
  6
Continuous
 62
     7
370
    25
100
AcDbLine
 10
212.0
 20
133.0189532127399
 30
0.0
 11
212.0
 21
103.0872686779001
 31
0.0
  0
LINE
  5
20F
330
1F
100
AcDbEntity
  8
勾配基準
  6
Continuous
 62
     7
370
    25
100
AcDbLine
 10
202.0
 20
103.0
 30
0.0
 11
202.0
 21
104.0079503786001
 31
0.0
  0
LINE
  5
210
330
1F
100
AcDbEntity
  8
勾配基準
  6
Continuous
 62
     7
370
    25
100
AcDbLine
 10
201.8
 20
104.0079503786001
 30
0.0
 11
202.0
 21
104.0079503786001
 31
0.0
  0
LINE
  5
211
330
1F
100
AcDbEntity
  8
勾配基準
  6
Continuous
 62
     7
370
    25
100
AcDbLine
 10
201.8
 20
104.0079503786001
 30
0.0
 11
201.8
 21
105.18184885338
 31
0.0
  0
LINE
  5
212
330
1F
100
AcDbEntity
  8
勾配基準
  6
Continuous
 62
     7
370
    25
100
AcDbLine
 10
212.0
 20
98.91273132207994
 30
0.0
 11
212.0
 21
68.53491012986001
 31
0.0
  0
LINE
  5
213
330
1F
100
AcDbEntity
  8
勾配基準
  6
Continuous
 62
     7
370
    25
100
AcDbLine
 10
212.0
 20
68.53491012986001
 30
0.0
 11
210.0
 21
68.5
 31
0.0
  0
LINE
  5
214
330
1F
100
AcDbEntity
  8
勾配基準
  6
Continuous
 62
     7
370
    25
100
AcDbLine
 10
210.0
 20
75.5000002889999
 30
0.0
 11
210.0
 21
68.5
 31
0.0
  0
LINE
  5
215
330
1F
100
AcDbEntity
  8
勾配基準
  6
Continuous
 62
     7
370
    25
100
AcDbLine
 10
203.0
 20
75.5000002889999
 30
0.0
 11
210.0
 21
75.5000002889999
 31
0.0
  0
LINE
  5
216
330
1F
100
AcDbEntity
  8
勾配基準
  6
Continuous
 62
     7
370
    25
100
AcDbLine
 10
203.0
 20
75.5000002889999
 30
0.0
 11
203.0
 21
75.0000002889999
 31
0.0
  0
LINE
  5
217
330
1F
100
AcDbEntity
  8
勾配基準
  6
Continuous
 62
     7
370
    25
100
AcDbLine
 10
203.0
 20
75.0000002889999
 30
0.0
 11
202.5
 21
75.0000002889999
 31
0.0
  0
ARC
  5
218
330
1F
100
AcDbEntity
  8
勾配基準
  6
Continuous
 62
     7
370
    25
100
AcDbCircle
 10
202.5
 20
75.5000002889999
 30
0.0
 40
0.5000000000000229
100
AcDbArc
 50
180.0
 51
270.0
  0
LINE
  5
219
330
1F
100
AcDbEntity
  8
勾配基準
  6
Continuous
 62
     7
370
    25
100
AcDbLine
 10
202.0
 20
75.5000002889999
 30
0.0
 11
202.0
 21
87.55012171039994
 31
0.0
  0
LINE
  5
21A
330
1F
100
AcDbEntity
  8
勾配基準
  6
Continuous
 62
     7
370
    25
100
AcDbLine
 10
201.8
 20
87.55012171039994
 30
0.0
 11
202.0
 21
87.55012171039994
 31
0.0
  0
LINE
  5
21B
330
1F
100
AcDbEntity
  8
勾配基準
  6
Continuous
 62
     7
370
    25
100
AcDbLine
 10
201.8
 20
87.55012171039994
 30
0.0
 11
201.8
 21
92.20413598901996
 31
0.0
  0
LINE
  5
21C
330
1F
100
AcDbEntity
  8
勾配基準
  6
Continuous
 62
     7
370
    25
100
AcDbLine
 10
202.0
 20
92.20413598901996
 30
0.0
 11
201.8
 21
92.20413598901996
 31
0.0
  0
LINE
  5
21D
330
1F
100
AcDbEntity
  8
勾配基準
  6
Continuous
 62
     7
370
    25
100
AcDbLine
 10
202.0
 20
92.20413598901996
 30
0.0
 11
202.0
 21
92.96708719212006
 31
0.0
  0
LINE
  5
21E
330
1F
100
AcDbEntity
  8
勾配基準
  6
Continuous
 62
     7
370
    25
100
AcDbLine
 10
201.8
 20
92.96708719212006
 30
0.0
 11
202.0
 21
92.96708719212006
 31
0.0
  0
LINE
  5
21F
330
1F
100
AcDbEntity
  8
勾配基準
  6
Continuous
 62
     7
370
    25
100
AcDbLine
 10
201.8
 20
92.96708719212006
 30
0.0
 11
201.8
 21
94.43617200528001
 31
0.0
  0
LINE
  5
220
330
1F
100
AcDbEntity
  8
勾配基準
  6
Continuous
 62
     7
370
    25
100
AcDbLine
 10
202.0
 20
94.43617200528001
 30
0.0
 11
201.8
 21
94.43617200528001
 31
0.0
  0
LINE
  5
221
330
1F
100
AcDbEntity
  8
勾配基準
  6
Continuous
 62
     7
370
    25
100
AcDbLine
 10
202.0
 20
94.43617200528001
 30
0.0
 11
202.0
 21
99.0
 31
0.0
  0
LINE
  5
222
330
1F
100
AcDbEntity
  8
勾配基準
  6
Continuous
 62
     7
370
    25
100
AcDbLine
 10
201.8
 20
102.9222152913401
 30
0.0
 11
201.8
 21
104.0079503786001
 31
0.0
  0
LINE
  5
223
330
1F
100
AcDbEntity
  8
勾配基準
  6
Continuous
 62
     7
370
    25
100
AcDbLine
 10
201.8
 20
105.18184885338
 30
0.0
 11
201.8
 21
105.2575442361201
 31
0.0
  0
LINE
  5
224
330
1F
100
AcDbEntity
  8
勾配基準
  6
Continuous
 62
     7
370
    25
100
AcDbLine
 10
201.8
 20
105.2575442361201
 30
0.0
 11
202.0
 21
105.2575442361201
 31
0.0
  0
LINE
  5
225
330
1F
100
AcDbEntity
  8
勾配基準
  6
Continuous
 62
     7
370
    25
100
AcDbLine
 10
201.8
 20
92.20413598901996
 30
0.0
 11
201.8
 21
92.96708719212006
 31
0.0
  0
LINE
  5
226
330
1F
100
AcDbEntity
  8
勾配基準
  6
Continuous
 62
     7
370
    25
100
AcDbLine
 10
201.8
 20
109.8416354108999
 30
0.0
 11
201.8
 21
110.48617910958
 31
0.0
  0
LINE
  5
227
330
1F
100
AcDbEntity
  8
勾配基準
  6
Continuous
 62
     7
370
    25
100
AcDbLine
 10
201.8
 20
98.30541654009994
 30
0.0
 11
202.0
 21
98.30541654009994
 31
0.0
  0
LINE
  5
228
330
1F
100
AcDbEntity
  8
勾配基準
  6
Continuous
 62
     7
370
    25
100
AcDbLine
 10
201.8
 20
98.30541654009994
 30
0.0
 11
201.8
 21
98.85039287665995
 31
0.0
  0
LINE
  5
229
330
1F
100
AcDbEntity
  8
勾配基準
  6
Continuous
 62
     7
370
    25
100
AcDbLine
 10
201.8
 20
98.85039287665995
 30
0.0
 11
202.0
 21
98.85039287665995
 31
0.0
  0
LINE
  5
22A
330
1F
100
AcDbEntity
  8
勾配基準
  6
Continuous
 62
     7
370
    25
100
AcDbLine
 10
201.8
 20
94.43617200528001
 30
0.0
 11
201.8
 21
98.30541654009994
 31
0.0
  0
LINE
  5
22B
330
1F
100
AcDbEntity
  8
勾配基準
  6
Continuous
 62
     7
370
    25
100
AcDbLine
 10
201.8
 20
107.4972929287999
 30
0.0
 11
202.0
 21
107.4972929287999
 31
0.0
  0
LINE
  5
22C
330
1F
100
AcDbEntity
  8
勾配基準
  6
Continuous
 62
     7
370
    25
100
AcDbLine
 10
201.8
 20
107.4972929287999
 30
0.0
 11
201.8
 21
108.6924433878401
 31
0.0
  0
LINE
  5
22D
330
1F
100
AcDbEntity
  8
勾配基準
  6
Continuous
 62
     7
370
    25
100
AcDbLine
 10
201.8
 20
105.6076892874401
 30
0.0
 11
202.0
 21
105.6076892874401
 31
0.0
  0
LINE
  5
22E
330
1F
100
AcDbEntity
  8
勾配基準
  6
Continuous
 62
     7
370
    25
100
AcDbLine
 10
201.8
 20
105.2575442361201
 30
0.0
 11
201.8
 21
105.6076892874401
 31
0.0
  0
LINE
  5
22F
330
1F
100
AcDbEntity
  8
勾配基準
  6
Continuous
 62
     7
370
    25
100
AcDbLine
 10
201.8
 20
105.6076892874401
 30
0.0
 11
201.8
 21
105.68900539848
 31
0.0
  0
LINE
  5
230
330
1F
100
AcDbEntity
  8
勾配基準
  6
Continuous
 62
     7
370
    25
100
AcDbLine
 10
201.8
 20
106.7316437486199
 30
0.0
 11
202.0
 21
106.7316437486199
 31
0.0
  0
LINE
  5
231
330
1F
100
AcDbEntity
  8
勾配基準
  6
Continuous
 62
     7
370
    25
100
AcDbLine
 10
201.8
 20
106.7316437486199
 30
0.0
 11
201.8
 21
107.4972929287999
 31
0.0
  0
LINE
  5
232
330
1F
100
AcDbEntity
  8
勾配基準
  6
Continuous
 62
     7
370
    25
100
AcDbLine
 10
201.8
 20
106.62579626856
 30
0.0
 11
201.8
 21
106.7316437486199
 31
0.0
  0
INSERT
  5
236
330
1F
100
AcDbEntity
  8
勾配基準
  6
Continuous
 62
     7
370
    25
100
AcDbBlockReference
  2
BLKF023
 10
0.0
 20
0.0
 30
0.0
  0
INSERT
  5
267
330
1F
100
AcDbEntity
  8
勾配基準
  6
Continuous
 62
     7
370
    25
100
AcDbBlockReference
  2
BLKF024
 10
0.0
 20
0.0
 30
0.0
  0
HATCH
  5
296
330
1F
100
AcDbEntity
  8
勾配基準
  6
Continuous
 62
     7
370
    25
100
AcDbHatch
 10
0.0
 20
0.0
 30
0.0
210
0.0
220
0.0
230
1.0
  2
_USER
 70
     0
 71
     0
 91
        1
 92
        0
 93
        4
 72
     1
 10
203.3
 20
126.4999997110001
 11
210.0
 21
126.4999997110001
 72
     1
 10
210.0
 20
126.4999997110001
 11
210.0
 21
126.7999997110001
 72
     1
 10
210.0
 20
126.7999997110001
 11
203.3
 21
126.7999997110001
 72
     1
 10
203.3
 20
126.7999997110001
 11
203.3
 21
126.4999997110001
 97
        0
 75
     0
 76
     0
 52
315.0
 41
0.25
 77
     0
 78
     1
 53
315.0
 43
0.0
 44
0.0
 45
0.1767766952966369
 46
0.1767766952966368
 79
     0
 98
        0
  0
HATCH
  5
297
330
1F
100
AcDbEntity
  8
勾配基準
  6
Continuous
 62
     7
370
    25
100
AcDbHatch
 10
0.0
 20
0.0
 30
0.0
210
0.0
220
0.0
230
1.0
  2
_USER
 70
     0
 71
     0
 91
        1
 92
        0
 93
        4
 72
     1
 10
210.0
 20
75.20000028900006
 11
203.3
 21
75.20000028899995
 72
     1
 10
203.3
 20
75.20000028899995
 11
203.3
 21
75.5000002889999
 72
     1
 10
203.3
 20
75.5000002889999
 11
210.0
 21
75.5000002889999
 72
     1
 10
210.0
 20
75.5000002889999
 11
210.0
 21
75.20000028900006
 97
        0
 75
     0
 76
     0
 52
315.0
 41
0.25
 77
     0
 78
     1
 53
315.0
 43
0.0
 44
0.0
 45
0.1767766952966369
 46
0.1767766952966368
 79
     0
 98
        0
  0
LINE
  5
298
330
1F
100
AcDbEntity
  8
勾配基準
  6
Continuous
 62
     7
370
    13
100
AcDbLine
 10
71.0
 20
140.85339000574
 30
0.0
 11
64.46839893386348
 21
140.85339000574
 31
0.0
  0
INSERT
  5
299
330
1F
100
AcDbEntity
  8
勾配基準
  6
Continuous
 62
     7
370
    13
100
AcDbBlockReference
  2
FXTIP_ARROW_E
 10
64.46839893386348
 20
140.85339000574
 30
0.0
 41
2.0
 42
2.0
 50
180.0
  0
LINE
  5
29A
330
1F
100
AcDbEntity
  8
勾配基準
  6
Continuous
 62
     7
370
    13
100
AcDbLine
 10
71.0
 20
62.73544382705995
 30
0.0
 11
64.46839893386348
 21
62.73544382705995
 31
0.0
  0
INSERT
  5
29B
330
1F
100
AcDbEntity
  8
勾配基準
  6
Continuous
 62
     7
370
    13
100
AcDbBlockReference
  2
FXTIP_ARROW_E
 10
64.46839893386348
 20
62.73544382705995
 30
0.0
 41
2.0
 42
2.0
 50
180.0
  0
TEXT
  5
29C
330
1F
100
AcDbEntity
  8
勾配基準
  6
Continuous
 62
   231
370
    25
100
AcDbText
 10
59.66331481933594
 20
138.3174409391782
 30
0.0
 40
2.648923433188236
  1
A
 41
0.6742788461538461
  7
通常文字
 11
59.66331481933594
 21
137.8335571289062
 31
0.0
100
AcDbText
 73
     1
  0
TEXT
  5
29D
330
1F
100
AcDbEntity
  8
勾配基準
  6
Continuous
 62
   231
370
    25
100
AcDbText
 10
59.66331481933594
 20
60.19952101730318
 30
0.0
 40
2.648923433188236
  1
A
 41
0.6742788461538461
  7
通常文字
 11
59.66331481933594
 21
59.71563720703125
 31
0.0
100
AcDbText
 73
     1
  0
LINE
  5
29E
330
1F
100
AcDbEntity
  8
0
  6
Continuous
 62
     7
370
    13
100
AcDbLine
 10
190.0
 20
51.0
 30
0.0
 11
240.0
 21
51.0
 31
0.0
  0
TEXT
  5
29F
330
1F
100
AcDbEntity
  8
0
  6
Continuous
 62
   231
370
    25
100
AcDbText
 10
191.4127960205078
 20
52.83032670454546
 30
0.0
 40
4.545454545454545
  1
A-A断面図　S=1/1
 41
0.6742788461538463
  7
通常文字
 11
191.4127960205078
 21
52.0
 31
0.0
100
AcDbText
 73
     1
  0
TEXT
  5
2A1
330
1F
100
AcDbEntity
  8
寸法線
  6
Continuous
 62
   231
370
    25
100
AcDbText
 10
70.99999999990483
 20
173.5452499996509
 30
0.0
 40
2.666666666666667
  1
65
 50
0.0000000099999999
 41
1.031636863823934
  7
寸法文字
 72
     1
 11
73.0
 21
173.0
 31
0.0
100
AcDbText
 73
     1
  0
LINE
  5
2A2
330
1F
100
AcDbEntity
  8
寸法線
  6
Continuous
 62
   151
370
    13
100
AcDbLine
 10
38.49999999999999
 20
172.0
 30
0.0
 11
103.5
 21
172.0
 31
0.0
  0
INSERT
  5
2A3
330
1F
100
AcDbEntity
  8
寸法線
  6
Continuous
 62
   151
370
    13
100
AcDbBlockReference
  2
FXTIP_ARROW_S
 10
38.49999999999999
 20
172.0
 30
0.0
 41
2.0
 42
2.0
 50
180.0
  0
INSERT
  5
2A4
330
1F
100
AcDbEntity
  8
寸法線
  6
Continuous
 62
   151
370
    13
100
AcDbBlockReference
  2
FXTIP_ARROW_E
 10
103.5
 20
172.0
 30
0.0
 41
2.0
 42
2.0
 50
360.0
  0
LINE
  5
2A5
330
1F
100
AcDbEntity
  8
寸法線
  6
Continuous
 62
   151
370
    13
100
AcDbLine
 10
38.49999999999998
 20
102.0
 30
0.0
 11
38.49999999999999
 21
173.0
 31
0.0
  0
LINE
  5
2A6
330
1F
100
AcDbEntity
  8
寸法線
  6
Continuous
 62
   151
370
    13
100
AcDbLine
 10
103.5
 20
102.0
 30
0.0
 11
103.5
 21
173.0
 31
0.0
  0
TEXT
  5
2A7
330
1F
100
AcDbEntity
  8
寸法線
  6
Continuous
 62
   231
370
    25
100
AcDbText
 10
66.99999999990483
 20
173.5452499996509
 30
0.0
 40
2.666666666666667
  1
φ
 50
0.0000000099999999
 41
1.031636863823934
  7
寸法文字
 72
     1
 11
69.0
 21
173.0
 31
0.0
100
AcDbText
 73
     1
  0
TEXT
  5
2A8
330
1F
100
AcDbEntity
  8
寸法線
  6
Continuous
 62
   231
370
    25
100
AcDbText
 10
70.99999999990483
 20
166.5452499996509
 30
0.0
 40
2.666666666666667
  1
52
 50
0.0000000099999999
 41
1.031636863823934
  7
寸法文字
 72
     1
 11
73.0
 21
166.0
 31
0.0
100
AcDbText
 73
     1
  0
LINE
  5
2A9
330
1F
100
AcDbEntity
  8
寸法線
  6
Continuous
 62
   151
370
    13
100
AcDbLine
 10
45.00000028900002
 20
165.0
 30
0.0
 11
96.99999971099999
 21
165.0
 31
0.0
  0
INSERT
  5
2AA
330
1F
100
AcDbEntity
  8
寸法線
  6
Continuous
 62
   151
370
    13
100
AcDbBlockReference
  2
FXTIP_ARROW_S
 10
45.00000028900002
 20
165.0
 30
0.0
 41
2.0
 42
2.0
 50
180.0
  0
INSERT
  5
2AB
330
1F
100
AcDbEntity
  8
寸法線
  6
Continuous
 62
   151
370
    13
100
AcDbBlockReference
  2
FXTIP_ARROW_E
 10
96.99999971099999
 20
165.0
 30
0.0
 41
2.0
 42
2.0
 50
360.0
  0
LINE
  5
2AC
330
1F
100
AcDbEntity
  8
寸法線
  6
Continuous
 62
   151
370
    13
100
AcDbLine
 10
45.00000028900001
 20
102.0
 30
0.0
 11
45.00000028900002
 21
166.0
 31
0.0
  0
LINE
  5
2AD
330
1F
100
AcDbEntity
  8
寸法線
  6
Continuous
 62
   151
370
    13
100
AcDbLine
 10
96.99999971099999
 20
102.0
 30
0.0
 11
96.99999971099999
 21
166.0
 31
0.0
  0
TEXT
  5
2AE
330
1F
100
AcDbEntity
  8
寸法線
  6
Continuous
 62
   231
370
    25
100
AcDbText
 10
66.99999999990483
 20
166.5452499996509
 30
0.0
 40
2.666666666666667
  1
φ
 50
0.0000000099999999
 41
1.031636863823934
  7
寸法文字
 72
     1
 11
69.0
 21
166.0
 31
0.0
100
AcDbText
 73
     1
  0
TEXT
  5
2AF
330
1F
100
AcDbEntity
  8
寸法線
  6
Continuous
 62
   231
370
    25
100
AcDbText
 10
148.4937438963892
 20
162.5452499994055
 30
0.0
 40
2.666666666666667
  1
10.2
 50
0.0000000099999999
 41
1.031780088852989
  7
寸法文字
 72
     1
 11
151.8999938964844
 21
162.0
 31
0.0
100
AcDbText
 73
     1
  0
LINE
  5
2B0
330
1F
100
AcDbEntity
  8
寸法線
  6
Continuous
 62
   151
370
    13
100
AcDbLine
 10
146.80000030678
 20
161.0
 30
0.0
 11
157.0
 21
161.0
 31
0.0
  0
INSERT
  5
2B1
330
1F
100
AcDbEntity
  8
寸法線
  6
Continuous
 62
   151
370
    13
100
AcDbBlockReference
  2
FXTIP_ARROW_S
 10
146.80000030678
 20
161.0
 30
0.0
 41
2.0
 42
2.0
 50
180.0
  0
INSERT
  5
2B2
330
1F
100
AcDbEntity
  8
寸法線
  6
Continuous
 62
   151
370
    13
100
AcDbBlockReference
  2
FXTIP_ARROW_E
 10
157.0
 20
161.0
 30
0.0
 41
2.0
 42
2.0
 50
360.0
  0
LINE
  5
2B3
330
1F
100
AcDbEntity
  8
寸法線
  6
Continuous
 62
   151
370
    13
100
AcDbLine
 10
146.80000030678
 20
115.0387293174799
 30
0.0
 11
146.80000030678
 21
162.0
 31
0.0
  0
LINE
  5
2B4
330
1F
100
AcDbEntity
  8
寸法線
  6
Continuous
 62
   151
370
    13
100
AcDbLine
 10
157.0
 20
134.0052839815601
 30
0.0
 11
157.0
 21
162.0
 31
0.0
  0
TEXT
  5
2B5
330
1F
100
AcDbEntity
  8
寸法線
  6
Continuous
 62
   231
370
    25
100
AcDbText
 10
149.9999999999048
 20
155.5452499996509
 30
0.0
 40
2.666666666666667
  1
10
 50
0.0000000099999999
 41
1.031636863823934
  7
寸法文字
 72
     1
 11
152.0
 21
155.0
 31
0.0
100
AcDbText
 73
     1
  0
LINE
  5
2B6
330
1F
100
AcDbEntity
  8
寸法線
  6
Continuous
 62
   151
370
    13
100
AcDbLine
 10
146.99999996704
 20
154.0
 30
0.0
 11
157.0
 21
154.0
 31
0.0
  0
INSERT
  5
2B7
330
1F
100
AcDbEntity
  8
寸法線
  6
Continuous
 62
   151
370
    13
100
AcDbBlockReference
  2
FXTIP_ARROW_S
 10
146.99999996704
 20
154.0
 30
0.0
 41
2.0
 42
2.0
 50
180.0
  0
INSERT
  5
2B8
330
1F
100
AcDbEntity
  8
寸法線
  6
Continuous
 62
   151
370
    13
100
AcDbBlockReference
  2
FXTIP_ARROW_E
 10
157.0
 20
154.0
 30
0.0
 41
2.0
 42
2.0
 50
360.0
  0
LINE
  5
2B9
330
1F
100
AcDbEntity
  8
寸法線
  6
Continuous
 62
   151
370
    13
100
AcDbLine
 10
146.99999996704
 20
127.4999995231599
 30
0.0
 11
146.99999996704
 21
155.0
 31
0.0
  0
TEXT
  5
2BA
330
1F
100
AcDbEntity
  8
寸法線
  6
Continuous
 62
   231
370
    25
100
AcDbText
 10
143.45475
 20
29.69374847412109
 30
0.0
 40
2.666666666666667
  1
10.2
 50
90.0
 41
1.031780088852989
  7
寸法文字
 72
     1
 11
144.0
 21
33.09999847412109
 31
0.0
100
AcDbText
 73
     1
  0
LINE
  5
2BB
330
1F
100
AcDbEntity
  8
寸法線
  6
Continuous
 62
   151
370
    13
100
AcDbLine
 10
145.0
 20
28.0
 30
0.0
 11
145.0
 21
38.19999969319997
 31
0.0
  0
INSERT
  5
2BC
330
1F
100
AcDbEntity
  8
寸法線
  6
Continuous
 62
   151
370
    13
100
AcDbBlockReference
  2
FXTIP_ARROW_S
 10
145.0
 20
28.0
 30
0.0
 41
2.0
 42
2.0
 50
270.0
  0
INSERT
  5
2BD
330
1F
100
AcDbEntity
  8
寸法線
  6
Continuous
 62
   151
370
    13
100
AcDbBlockReference
  2
FXTIP_ARROW_E
 10
145.0
 20
38.19999969319997
 30
0.0
 41
2.0
 42
2.0
 50
90.0
  0
LINE
  5
2BE
330
1F
100
AcDbEntity
  8
寸法線
  6
Continuous
 62
   151
370
    13
100
AcDbLine
 10
104.46508911252
 20
28.0
 30
0.0
 11
146.0
 21
28.0
 31
0.0
  0
LINE
  5
2BF
330
1F
100
AcDbEntity
  8
寸法線
  6
Continuous
 62
   151
370
    13
100
AcDbLine
 10
88.29006490110001
 20
38.19999969319997
 30
0.0
 11
146.0
 21
38.19999969319997
 31
0.0
  0
TEXT
  5
2C0
330
1F
100
AcDbEntity
  8
寸法線
  6
Continuous
 62
   231
370
    25
100
AcDbText
 10
136.45475
 20
31.0
 30
0.0
 40
2.666666666666667
  1
10
 50
90.0
 41
1.031636863823934
  7
寸法文字
 72
     1
 11
137.0
 21
33.0
 31
0.0
100
AcDbText
 73
     1
  0
LINE
  5
2C1
330
1F
100
AcDbEntity
  8
寸法線
  6
Continuous
 62
   151
370
    13
100
AcDbLine
 10
138.0
 20
28.0
 30
0.0
 11
138.0
 21
38.00000003296009
 31
0.0
  0
INSERT
  5
2C2
330
1F
100
AcDbEntity
  8
寸法線
  6
Continuous
 62
   151
370
    13
100
AcDbBlockReference
  2
FXTIP_ARROW_S
 10
138.0
 20
28.0
 30
0.0
 41
2.0
 42
2.0
 50
270.0
  0
INSERT
  5
2C3
330
1F
100
AcDbEntity
  8
寸法線
  6
Continuous
 62
   151
370
    13
100
AcDbBlockReference
  2
FXTIP_ARROW_E
 10
138.0
 20
38.00000003296009
 30
0.0
 41
2.0
 42
2.0
 50
90.0
  0
LINE
  5
2C4
330
1F
100
AcDbEntity
  8
寸法線
  6
Continuous
 62
   151
370
    13
100
AcDbLine
 10
97.49999952316
 20
38.00000003296009
 30
0.0
 11
139.0
 21
38.00000003296009
 31
0.0
  0
TEXT
  5
2C5
330
1F
100
AcDbEntity
  8
寸法線
  6
Continuous
 62
   231
370
    25
100
AcDbText
 10
129.45475
 20
31.5
 30
0.0
 40
2.666666666666667
  1
2
 50
90.0
 41
1.031636863823934
  7
寸法文字
 72
     1
 11
130.0
 21
32.5
 31
0.0
100
AcDbText
 73
     1
  0
LINE
  5
2C6
330
1F
100
AcDbEntity
  8
寸法線
  6
Continuous
 62
   151
370
    13
100
AcDbLine
 10
131.0
 20
28.0
 30
0.0
 11
131.0
 21
29.99999988579998
 31
0.0
  0
LINE
  5
2C7
330
1F
100
AcDbEntity
  8
寸法線
  6
Continuous
 62
   151
370
    13
100
AcDbLine
 10
104.4999988079
 20
29.99999988579998
 30
0.0
 11
132.0
 21
29.99999988579998
 31
0.0
  0
LINE
  5
2C8
330
1F
100
AcDbEntity
  8
寸法線
  6
Continuous
 62
   151
370
    13
100
AcDbLine
 10
131.0
 20
22.0
 30
0.0
 11
131.0
 21
28.0
 31
0.0
  0
INSERT
  5
2C9
330
1F
100
AcDbEntity
  8
寸法線
  6
Continuous
 62
   151
370
    13
100
AcDbBlockReference
  2
FXTIP_ARROW_E
 10
131.0
 20
28.0
 30
0.0
 41
2.0
 42
2.0
 50
90.0
  0
LINE
  5
2CA
330
1F
100
AcDbEntity
  8
寸法線
  6
Continuous
 62
   151
370
    13
100
AcDbLine
 10
131.0
 20
29.99999988579998
 30
0.0
 11
131.0
 21
35.0
 31
0.0
  0
INSERT
  5
2CB
330
1F
100
AcDbEntity
  8
寸法線
  6
Continuous
 62
   151
370
    13
100
AcDbBlockReference
  2
FXTIP_ARROW_S
 10
131.0
 20
29.99999988579998
 30
0.0
 41
2.0
 42
2.0
 50
270.0
  0
TEXT
  5
2CC
330
1F
100
AcDbEntity
  8
寸法線
  6
Continuous
 62
   231
370
    25
100
AcDbText
 10
151.5
 20
148.54525
 30
0.0
 40
2.666666666666667
  1
2
 41
1.031636863823934
  7
寸法文字
 72
     1
 11
152.5
 21
148.0
 31
0.0
100
AcDbText
 73
     1
  0
LINE
  5
2CD
330
1F
100
AcDbEntity
  8
寸法線
  6
Continuous
 62
   151
370
    13
100
AcDbLine
 10
155.0000001142
 20
147.0
 30
0.0
 11
157.0
 21
147.0
 31
0.0
  0
LINE
  5
2CE
330
1F
100
AcDbEntity
  8
寸法線
  6
Continuous
 62
   151
370
    13
100
AcDbLine
 10
155.0000001142
 20
134.0397019386201
 30
0.0
 11
155.0000001142
 21
148.0
 31
0.0
  0
LINE
  5
2CF
330
1F
100
AcDbEntity
  8
寸法線
  6
Continuous
 62
   151
370
    13
100
AcDbLine
 10
150.0
 20
147.0
 30
0.0
 11
155.0000001142
 21
147.0
 31
0.0
  0
INSERT
  5
2D0
330
1F
100
AcDbEntity
  8
寸法線
  6
Continuous
 62
   151
370
    13
100
AcDbBlockReference
  2
FXTIP_ARROW_E
 10
155.0000001142
 20
147.0
 30
0.0
 41
2.0
 42
2.0
 50
360.0
  0
LINE
  5
2D1
330
1F
100
AcDbEntity
  8
寸法線
  6
Continuous
 62
   151
370
    13
100
AcDbLine
 10
157.0
 20
147.0
 30
0.0
 11
163.0
 21
147.0
 31
0.0
  0
INSERT
  5
2D2
330
1F
100
AcDbEntity
  8
寸法線
  6
Continuous
 62
   151
370
    13
100
AcDbBlockReference
  2
FXTIP_ARROW_S
 10
157.0
 20
147.0
 30
0.0
 41
2.0
 42
2.0
 50
180.0
  0
TEXT
  5
2D3
330
1F
100
AcDbEntity
  8
寸法線
  6
Continuous
 62
   231
370
    25
100
AcDbText
 10
204.2437438963892
 20
155.54524999958
 30
0.0
 40
2.666666666666667
  1
6.7
 50
0.0000000099999999
 41
1.031839622641509
  7
寸法文字
 72
     1
 11
206.6499938964844
 21
155.0
 31
0.0
100
AcDbText
 73
     1
  0
LINE
  5
2D4
330
1F
100
AcDbEntity
  8
寸法線
  6
Continuous
 62
   151
370
    13
100
AcDbLine
 10
203.3
 20
154.0
 30
0.0
 11
210.0
 21
154.0
 31
0.0
  0
INSERT
  5
2D5
330
1F
100
AcDbEntity
  8
寸法線
  6
Continuous
 62
   151
370
    13
100
AcDbBlockReference
  2
FXTIP_ARROW_S
 10
203.3
 20
154.0
 30
0.0
 41
2.0
 42
2.0
 50
180.0
  0
INSERT
  5
2D6
330
1F
100
AcDbEntity
  8
寸法線
  6
Continuous
 62
   151
370
    13
100
AcDbBlockReference
  2
FXTIP_ARROW_E
 10
210.0
 20
154.0
 30
0.0
 41
2.0
 42
2.0
 50
360.0
  0
LINE
  5
2D7
330
1F
100
AcDbEntity
  8
寸法線
  6
Continuous
 62
   151
370
    13
100
AcDbLine
 10
203.3
 20
127.7999997110001
 30
0.0
 11
203.3
 21
155.0
 31
0.0
  0
LINE
  5
2D8
330
1F
100
AcDbEntity
  8
寸法線
  6
Continuous
 62
   151
370
    13
100
AcDbLine
 10
210.0
 20
134.0538633425999
 30
0.0
 11
210.0
 21
155.0
 31
0.0
  0
LINE
  5
2D9
330
1F
100
AcDbEntity
  8
部品図
  6
Continuous
 62
     7
370
    25
100
AcDbLine
 10
203.0
 20
169.0
 30
0.0
 11
288.0
 21
169.0
 31
0.0
  0
TEXT
  5
2DA
330
1F
100
AcDbEntity
  8
部品図
  6
Continuous
 62
     7
370
    25
100
AcDbText
 10
207.1713104248047
 20
170.2006965920922
 30
0.0
 40
2.740978291540435
  1
2
 41
0.6742788461538461
  7
通常文字
 11
207.1713104248047
 21
169.6999969482422
 31
0.0
100
AcDbText
 73
     1
  0
TEXT
  5
2DB
330
1F
100
AcDbEntity
  8
部品図
  6
Continuous
 62
     7
370
    25
100
AcDbText
 10
217.7293243408203
 20
170.2006965920922
 30
0.0
 40
2.740978291540435
  1
反射体
 41
0.6742788461538463
  7
通常文字
 11
217.7293243408203
 21
169.6999969482422
 31
0.0
100
AcDbText
 73
     1
  0
TEXT
  5
2DC
330
1F
100
AcDbEntity
  8
部品図
  6
Continuous
 62
     7
370
    25
100
AcDbText
 10
237.1713104248047
 20
170.2006965920922
 30
0.0
 40
2.740978291540435
  1
2
 41
0.6742788461538461
  7
通常文字
 11
237.1713104248047
 21
169.6999969482422
 31
0.0
100
AcDbText
 73
     1
  0
TEXT
  5
2DD
330
1F
100
AcDbEntity
  8
部品図
  6
Continuous
 62
     7
370
    25
100
AcDbText
 10
270.0043029785156
 20
170.2006965920922
 30
0.0
 40
2.740978291540435
  1
白色/黄色
 41
0.6742788461538461
  7
通常文字
 11
270.0043029785156
 21
169.6999969482422
 31
0.0
100
AcDbText
 73
     1
  0
LINE
  5
2DE
330
1F
100
AcDbEntity
  8
寸法線
  6
Continuous
 62
   151
370
    13
100
AcDbLine
 10
95.27829903288256
 20
85.0516265785737
 30
0.0
 11
107.3005195891804
 21
72.69075192209846
 31
0.0
  0
INSERT
  5
2DF
330
1F
100
AcDbEntity
  8
寸法線
  6
Continuous
 62
   151
370
    13
100
AcDbBlockReference
  2
FXTIP_ARROW_S
 10
95.27829903288256
 20
85.0516265785737
 30
0.0
 41
2.0
 42
2.0
 50
134.2042764472607
  0
CIRCLE
  5
2E0
330
1F
100
AcDbEntity
  8
寸法線
  6
Continuous
 62
   151
370
    13
100
AcDbCircle
 10
110.7866126379178
 20
69.10645906917128
 30
0.0
 40
5.0
  0
TEXT
  5
2E1
330
1F
100
AcDbEntity
  8
寸法線
  6
Continuous
 62
   231
370
    25
100
AcDbText
 10
109.7866134645882
 20
67.7731272377812
 30
0.0
 40
2.666666666666667
  1
1
 50
0.0000000099999999
 41
1.031636863823934
  7
寸法文字
 72
     1
 11
110.7866134643555
 21
69.10646057128906
 31
0.0
100
AcDbText
 73
     2
  0
LINE
  5
2E2
330
1F
100
AcDbEntity
  8
寸法線
  6
Continuous
 62
   151
370
    13
100
AcDbLine
 10
206.9114044805719
 20
126.7999997110001
 30
0.0
 11
196.3329503861704
 21
133.1999140289552
 31
0.0
  0
INSERT
  5
2E3
330
1F
100
AcDbEntity
  8
寸法線
  6
Continuous
 62
   151
370
    13
100
AcDbBlockReference
  2
FXTIP_ARROW_S
 10
206.9114044805719
 20
126.7999997110001
 30
0.0
 41
2.0
 42
2.0
 50
328.8262616727108
  0
CIRCLE
  5
2E4
330
1F
100
AcDbEntity
  8
寸法線
  6
Continuous
 62
   151
370
    13
100
AcDbCircle
 10
192.0549423393842
 20
135.7880885114105
 30
0.0
 40
5.0
  0
TEXT
  5
2E5
330
1F
100
AcDbEntity
  8
寸法線
  6
Continuous
 62
   231
370
    25
100
AcDbText
 10
191.0549468996468
 20
134.4547526039921
 30
0.0
 40
2.666666666666667
  1
2
 50
0.0000000099999999
 41
1.031636863823934
  7
寸法文字
 72
     1
 11
192.0549468994141
 21
135.7880859375
 31
0.0
100
AcDbText
 73
     2
  0
LINE
  5
2E6
330
1F
100
AcDbEntity
  8
寸法線
  6
Continuous
 62
   151
370
    13
100
AcDbLine
 10
206.9114044805719
 20
75.20000028899995
 30
0.0
 11
196.3329503861704
 21
68.80008597104475
 31
0.0
  0
INSERT
  5
2E7
330
1F
100
AcDbEntity
  8
寸法線
  6
Continuous
 62
   151
370
    13
100
AcDbBlockReference
  2
FXTIP_ARROW_S
 10
206.9114044805719
 20
75.20000028899995
 30
0.0
 41
2.0
 42
2.0
 50
31.17373832728917
  0
CIRCLE
  5
2E8
330
1F
100
AcDbEntity
  8
寸法線
  6
Continuous
 62
   151
370
    13
100
AcDbCircle
 10
192.0549423393842
 20
66.2119114885895
 30
0.0
 40
5.0
  0
TEXT
  5
2E9
330
1F
100
AcDbEntity
  8
寸法線
  6
Continuous
 62
   231
370
    25
100
AcDbText
 10
191.0549468994141
 20
64.87858072916667
 30
0.0
 40
2.666666666666667
  1
2
 41
1.031636863823934
  7
寸法文字
 72
     1
 11
192.0549468994141
 21
66.2119140625
 31
0.0
100
AcDbText
 73
     2
  0
TEXT
  5
2EA
330
1F
100
AcDbEntity
  8
部品図
  6
Continuous
 62
     7
370
    25
100
AcDbText
 10
245.1020660400391
 20
170.111124678625
 30
0.0
 40
2.250635082071478
  1
プリズムシート
 41
0.6742788461538461
  7
通常文字
 11
245.1020660400391
 21
169.6999969482422
 31
0.0
100
AcDbText
 73
     1
  0
ENDSEC
  0
SECTION
  2
OBJECTS
  0
DICTIONARY
  5
C
330
0
100
AcDbDictionary
281
     1
  3
ACAD_GROUP
350
D
  3
ACAD_LAYOUT
350
1A
  3
ACAD_MATERIAL
350
43
  3
ACAD_MLEADERSTYLE
350
2ED
  3
ACAD_MLINESTYLE
350
17
  3
ACAD_PLOTSETTINGS
350
19
  3
ACAD_PLOTSTYLENAME
350
E
  3
ACAD_SCALELIST
350
47
  3
ACAD_VISUALSTYLE
350
2A
  3
AcDbVariableDictionary
350
2EB
  0
DICTIONARY
  5
D
102
{ACAD_REACTORS
330
C
102
}
330
C
100
AcDbDictionary
281
     1
  0
DICTIONARY
  5
1A
102
{ACAD_REACTORS
330
C
102
}
330
C
100
AcDbDictionary
281
     1
  3
Layout1
350
1E
  3
Layout2
350
26
  3
Model
350
22
  0
DICTIONARY
  5
43
102
{ACAD_REACTORS
330
C
102
}
330
C
100
AcDbDictionary
281
     1
  3
ByBlock
350
45
  3
ByLayer
350
44
  3
Global
350
46
  0
DICTIONARY
  5
2ED
102
{ACAD_REACTORS
330
C
102
}
330
C
100
AcDbDictionary
281
     1
  0
DICTIONARY
  5
17
102
{ACAD_REACTORS
330
C
102
}
330
C
100
AcDbDictionary
281
     1
  3
Standard
350
18
  0
DICTIONARY
  5
19
102
{ACAD_REACTORS
330
C
102
}
330
C
100
AcDbDictionary
281
     1
  0
ACDBDICTIONARYWDFLT
  5
E
102
{ACAD_REACTORS
330
C
102
}
330
C
100
AcDbDictionary
281
     1
  3
Normal
350
F
100
AcDbDictionaryWithDefault
340
F
  0
DICTIONARY
  5
47
102
{ACAD_REACTORS
330
C
102
}
330
C
100
AcDbDictionary
281
     1
  3
A0
350
48
  3
A1
350
49
  3
A2
350
4A
  3
A3
350
4B
  3
A4
350
4C
  3
A5
350
4D
  3
A6
350
4E
  3
A7
350
4F
  3
A8
350
50
  3
A9
350
51
  3
B0
350
52
  3
B1
350
53
  3
B2
350
54
  3
B3
350
55
  3
B4
350
56
  3
B5
350
57
  3
B6
350
58
  3
B7
350
59
  3
B8
350
5A
  3
B9
350
5B
  3
C0
350
5C
  3
C1
350
5D
  3
C2
350
5E
  3
C3
350
5F
  3
C4
350
60
  3
C5
350
61
  3
C6
350
62
  3
C7
350
63
  3
C8
350
64
  3
C9
350
65
  3
D0
350
66
  3
D1
350
67
  3
D2
350
68
  0
DICTIONARY
  5
2A
102
{ACAD_REACTORS
330
C
102
}
330
C
100
AcDbDictionary
281
     1
  3
2dWireframe
350
2F
  3
Basic
350
32
  3
Brighten
350
36
  3
ColorChange
350
3A
  3
Conceptual
350
34
  3
Dim
350
35
  3
EdgeColorOff
350
3D
  3
Facepattern
350
39
  3
Flat
350
2B
  3
FlatWithEdges
350
2C
  3
Gouraud
350
2D
  3
GouraudWithEdges
350
2E
  3
Hidden
350
31
  3
JitterOff
350
3B
  3
Linepattern
350
38
  3
OverhangOff
350
3C
  3
Realistic
350
33
  3
Shaded
350
42
  3
Shaded with edges
350
41
  3
Shades of Gray
350
3E
  3
Sketchy
350
3F
  3
Thicken
350
37
  3
Wireframe
350
30
  3
X-Ray
350
40
  0
DICTIONARY
  5
2EB
102
{ACAD_REACTORS
330
C
102
}
330
C
100
AcDbDictionary
281
     1
  3
CANNOSCALE
350
2F4
  3
DIMASSOC
350
2F2
  3
HIDETEXT
350
2F3
  3
MSLTSCALE
350
2F5
  3
PSOLHEIGHT
350
2EF
  3
PSOLWIDTH
350
2EE
  0
LAYOUT
  5
1E
102
{ACAD_REACTORS
330
1A
102
}
330
1A
100
AcDbPlotSettings
  1

  2
none_device
  4

  6

 40
0.0
 41
0.0
 42
0.0
 43
0.0
 44
0.0
 45
0.0
 46
0.0
 47
0.0
 48
0.0
 49
0.0
140
0.0
141
0.0
142
1.0
143
1.0
 70
   688
 72
     1
 73
     0
 74
     5
  7

 75
    16
147
1.0
148
0.0
149
0.0
100
AcDbLayout
  1
Layout1
 70
     1
 71
     1
 10
0.0
 20
0.0
 11
420.0
 21
297.0
 12
0.0
 22
0.0
 32
0.0
 14
1.000000000000000E+20
 24
1.000000000000000E+20
 34
1.000000000000000E+20
 15
-1.000000000000000E+20
 25
-1.000000000000000E+20
 35
-1.000000000000000E+20
146
0.0
 13
0.0
 23
0.0
 33
0.0
 16
1.0
 26
0.0
 36
0.0
 17
0.0
 27
1.0
 37
0.0
 76
     0
330
1B
  0
LAYOUT
  5
26
102
{ACAD_REACTORS
330
1A
102
}
330
1A
100
AcDbPlotSettings
  1

  2
none_device
  4

  6

 40
0.0
 41
0.0
 42
0.0
 43
0.0
 44
0.0
 45
0.0
 46
0.0
 47
0.0
 48
0.0
 49
0.0
140
0.0
141
0.0
142
1.0
143
1.0
 70
   688
 72
     1
 73
     0
 74
     5
  7

 75
    16
147
1.0
148
0.0
149
0.0
100
AcDbLayout
  1
Layout2
 70
     1
 71
     2
 10
0.0
 20
0.0
 11
0.0
 21
0.0
 12
0.0
 22
0.0
 32
0.0
 14
0.0
 24
0.0
 34
0.0
 15
0.0
 25
0.0
 35
0.0
146
0.0
 13
0.0
 23
0.0
 33
0.0
 16
1.0
 26
0.0
 36
0.0
 17
0.0
 27
1.0
 37
0.0
 76
     0
330
23
  0
LAYOUT
  5
22
102
{ACAD_REACTORS
330
1A
102
}
330
1A
100
AcDbPlotSettings
  1

  2
none_device
  4
Letter_(8.50_x_11.00_Inches)
  6

 40
6.35
 41
6.35
 42
6.35000508
 43
6.35000508
 44
215.9
 45
279.4
 46
0.0
 47
0.0
 48
0.0
 49
0.0
140
0.0
141
0.0
142
1.0
143
1.0
 70
  1712
 72
     1
 73
     0
 74
     0
  7

 75
     0
147
1.0
148
0.0
149
0.0
100
AcDbLayout
  1
Model
 70
     1
 71
     0
 10
0.0
 20
0.0
 11
297.0
 21
210.0
 12
0.0
 22
0.0
 32
0.0
 14
0.0
 24
0.0
 34
0.0
 15
297.0
 25
210.0
 35
0.0
146
0.0
 13
0.0
 23
0.0
 33
0.0
 16
1.0
 26
0.0
 36
0.0
 17
0.0
 27
1.0
 37
0.0
 76
     0
330
1F
331
29
  0
MATERIAL
  5
45
102
{ACAD_REACTORS
330
43
102
}
102
{ACAD_XDICTIONARY
360
328
102
}
330
43
100
AcDbMaterial
  1
ByBlock
  0
MATERIAL
  5
44
102
{ACAD_REACTORS
330
43
102
}
102
{ACAD_XDICTIONARY
360
326
102
}
330
43
100
AcDbMaterial
  1
ByLayer
  0
MATERIAL
  5
46
102
{ACAD_REACTORS
330
43
102
}
102
{ACAD_XDICTIONARY
360
32A
102
}
330
43
100
AcDbMaterial
  1
Global
  0
MLINESTYLE
  5
18
102
{ACAD_REACTORS
330
17
102
}
330
17
100
AcDbMlineStyle
  2
Standard
 70
     0
  3

 62
   256
 51
90.0
 52
90.0
 71
     2
 49
0.5
 62
   256
  6
BYLAYER
 49
-0.5
 62
   256
  6
BYLAYER
  0
ACDBPLACEHOLDER
  5
F
102
{ACAD_REACTORS
330
E
102
}
330
E
  0
SCALE
  5
48
102
{ACAD_REACTORS
330
47
102
}
330
47
100
AcDbScale
 70
     0
300
1:1
140
1.0
141
1.0
290
     1
  0
SCALE
  5
49
102
{ACAD_REACTORS
330
47
102
}
330
47
100
AcDbScale
 70
     0
300
1:2
140
1.0
141
2.0
290
     0
  0
SCALE
  5
4A
102
{ACAD_REACTORS
330
47
102
}
330
47
100
AcDbScale
 70
     0
300
1:4
140
1.0
141
4.0
290
     0
  0
SCALE
  5
4B
102
{ACAD_REACTORS
330
47
102
}
330
47
100
AcDbScale
 70
     0
300
1:5
140
1.0
141
5.0
290
     0
  0
SCALE
  5
4C
102
{ACAD_REACTORS
330
47
102
}
330
47
100
AcDbScale
 70
     0
300
1:8
140
1.0
141
8.0
290
     0
  0
SCALE
  5
4D
102
{ACAD_REACTORS
330
47
102
}
330
47
100
AcDbScale
 70
     0
300
1:10
140
1.0
141
10.0
290
     0
  0
SCALE
  5
4E
102
{ACAD_REACTORS
330
47
102
}
330
47
100
AcDbScale
 70
     0
300
1:16
140
1.0
141
16.0
290
     0
  0
SCALE
  5
4F
102
{ACAD_REACTORS
330
47
102
}
330
47
100
AcDbScale
 70
     0
300
1:20
140
1.0
141
20.0
290
     0
  0
SCALE
  5
50
102
{ACAD_REACTORS
330
47
102
}
330
47
100
AcDbScale
 70
     0
300
1:30
140
1.0
141
30.0
290
     0
  0
SCALE
  5
51
102
{ACAD_REACTORS
330
47
102
}
330
47
100
AcDbScale
 70
     0
300
1:40
140
1.0
141
40.0
290
     0
  0
SCALE
  5
52
102
{ACAD_REACTORS
330
47
102
}
330
47
100
AcDbScale
 70
     0
300
1:50
140
1.0
141
50.0
290
     0
  0
SCALE
  5
53
102
{ACAD_REACTORS
330
47
102
}
330
47
100
AcDbScale
 70
     0
300
1:100
140
1.0
141
100.0
290
     0
  0
SCALE
  5
54
102
{ACAD_REACTORS
330
47
102
}
330
47
100
AcDbScale
 70
     0
300
2:1
140
2.0
141
1.0
290
     0
  0
SCALE
  5
55
102
{ACAD_REACTORS
330
47
102
}
330
47
100
AcDbScale
 70
     0
300
4:1
140
4.0
141
1.0
290
     0
  0
SCALE
  5
56
102
{ACAD_REACTORS
330
47
102
}
330
47
100
AcDbScale
 70
     0
300
8:1
140
8.0
141
1.0
290
     0
  0
SCALE
  5
57
102
{ACAD_REACTORS
330
47
102
}
330
47
100
AcDbScale
 70
     0
300
10:1
140
10.0
141
1.0
290
     0
  0
SCALE
  5
58
102
{ACAD_REACTORS
330
47
102
}
330
47
100
AcDbScale
 70
     0
300
100:1
140
100.0
141
1.0
290
     0
  0
SCALE
  5
59
102
{ACAD_REACTORS
330
47
102
}
330
47
100
AcDbScale
 70
     0
300
1/128" = 1'-0"
140
0.0078125
141
12.0
290
     0
  0
SCALE
  5
5A
102
{ACAD_REACTORS
330
47
102
}
330
47
100
AcDbScale
 70
     0
300
1/64" = 1'-0"
140
0.015625
141
12.0
290
     0
  0
SCALE
  5
5B
102
{ACAD_REACTORS
330
47
102
}
330
47
100
AcDbScale
 70
     0
300
1/32" = 1'-0"
140
0.03125
141
12.0
290
     0
  0
SCALE
  5
5C
102
{ACAD_REACTORS
330
47
102
}
330
47
100
AcDbScale
 70
     0
300
1/16" = 1'-0"
140
0.0625
141
12.0
290
     0
  0
SCALE
  5
5D
102
{ACAD_REACTORS
330
47
102
}
330
47
100
AcDbScale
 70
     0
300
3/32" = 1'-0"
140
0.09375
141
12.0
290
     0
  0
SCALE
  5
5E
102
{ACAD_REACTORS
330
47
102
}
330
47
100
AcDbScale
 70
     0
300
1/8" = 1'-0"
140
0.125
141
12.0
290
     0
  0
SCALE
  5
5F
102
{ACAD_REACTORS
330
47
102
}
330
47
100
AcDbScale
 70
     0
300
3/16" = 1'-0"
140
0.1875
141
12.0
290
     0
  0
SCALE
  5
60
102
{ACAD_REACTORS
330
47
102
}
330
47
100
AcDbScale
 70
     0
300
1/4" = 1'-0"
140
0.25
141
12.0
290
     0
  0
SCALE
  5
61
102
{ACAD_REACTORS
330
47
102
}
330
47
100
AcDbScale
 70
     0
300
3/8" = 1'-0"
140
0.375
141
12.0
290
     0
  0
SCALE
  5
62
102
{ACAD_REACTORS
330
47
102
}
330
47
100
AcDbScale
 70
     0
300
1/2" = 1'-0"
140
0.5
141
12.0
290
     0
  0
SCALE
  5
63
102
{ACAD_REACTORS
330
47
102
}
330
47
100
AcDbScale
 70
     0
300
3/4" = 1'-0"
140
0.75
141
12.0
290
     0
  0
SCALE
  5
64
102
{ACAD_REACTORS
330
47
102
}
330
47
100
AcDbScale
 70
     0
300
1" = 1'-0"
140
1.0
141
12.0
290
     0
  0
SCALE
  5
65
102
{ACAD_REACTORS
330
47
102
}
330
47
100
AcDbScale
 70
     0
300
1-1/2" = 1'-0"
140
1.5
141
12.0
290
     0
  0
SCALE
  5
66
102
{ACAD_REACTORS
330
47
102
}
330
47
100
AcDbScale
 70
     0
300
3" = 1'-0"
140
3.0
141
12.0
290
     0
  0
SCALE
  5
67
102
{ACAD_REACTORS
330
47
102
}
330
47
100
AcDbScale
 70
     0
300
6" = 1'-0"
140
6.0
141
12.0
290
     0
  0
SCALE
  5
68
102
{ACAD_REACTORS
330
47
102
}
330
47
100
AcDbScale
 70
     0
300
1'-0" = 1'-0"
140
12.0
141
12.0
290
     0
  0
VISUALSTYLE
  5
2F
102
{ACAD_REACTORS
330
2A
102
}
102
{ACAD_XDICTIONARY
360
2FE
102
}
330
2A
100
AcDbVisualStyle
  2
2dWireframe
 70
     4
 71
     0
 72
     2
 73
     0
 90
        0
 40
0.6
 41
30.0
 62
     5
 63
     7
 74
     1
 91
        4
 64
     7
 65
   257
 75
     1
175
     1
 42
1.0
 92
        0
 66
   257
 43
1.0
 76
     1
 77
     6
 78
     2
 67
     7
 79
     5
170
     0
171
     0
290
     0
174
     0
 93
        1
 44
0.0
173
     0
291
     0
 45
0.0
1001
ACAD
1000
AcDbSavedByObjectVersion
1070
     0
  0
VISUALSTYLE
  5
32
102
{ACAD_REACTORS
330
2A
102
}
102
{ACAD_XDICTIONARY
360
304
102
}
330
2A
100
AcDbVisualStyle
  2
Basic
 70
     7
 71
     1
 72
     0
 73
     1
 90
        0
 40
0.6
 41
30.0
 62
     5
 63
     7
 74
     0
 91
        4
 64
     7
 65
   257
 75
     1
175
     1
 42
1.0
 92
        8
 66
     7
 43
1.0
 76
     1
 77
     6
 78
     2
 67
     7
 79
     5
170
     0
171
     0
290
     0
174
     0
 93
        1
 44
0.0
173
     0
291
     1
 45
0.0
1001
ACAD
1000
AcDbSavedByObjectVersion
1070
     0
  0
VISUALSTYLE
  5
36
102
{ACAD_REACTORS
330
2A
102
}
102
{ACAD_XDICTIONARY
360
30C
102
}
330
2A
100
AcDbVisualStyle
  2
Brighten
 70
    12
 71
     2
 72
     2
 73
     0
 90
        0
 40
0.6
 41
30.0
 62
     5
 63
     7
 74
     1
 91
        4
 64
     7
 65
   257
 75
     1
175
     1
 42
1.0
 92
        8
 66
     7
 43
1.0
 76
     1
 77
     6
 78
     2
 67
     7
 79
     5
170
     0
171
     0
290
     0
174
     0
 93
        1
 44
50.0
173
     0
291
     1
 45
0.0
1001
ACAD
1000
AcDbSavedByObjectVersion
1070
     0
  0
VISUALSTYLE
  5
3A
102
{ACAD_REACTORS
330
2A
102
}
102
{ACAD_XDICTIONARY
360
314
102
}
330
2A
100
AcDbVisualStyle
  2
ColorChange
 70
    16
 71
     2
 72
     2
 73
     3
 90
        0
 40
0.6
 41
30.0
 62
     5
 63
     8
 74
     1
 91
        4
 64
     7
 65
   257
 75
     1
175
     1
 42
1.0
 92
        8
 66
     8
 43
1.0
 76
     1
 77
     6
 78
     2
 67
     7
 79
     5
170
     0
171
     0
290
     0
174
     0
 93
        1
 44
0.0
173
     0
291
     1
 45
0.0
1001
ACAD
1000
AcDbSavedByObjectVersion
1070
     0
  0
VISUALSTYLE
  5
34
102
{ACAD_REACTORS
330
2A
102
}
102
{ACAD_XDICTIONARY
360
308
102
}
330
2A
100
AcDbVisualStyle
  2
Conceptual
 70
     9
 71
     3
 72
     2
 73
     0
 90
        0
 40
0.6
 41
30.0
 62
     5
 63
     7
 74
     2
 91
        2
 64
     7
 65
   257
 75
     1
175
     1
 42
179.0
 92
        8
 66
     7
 43
1.0
 76
     1
 77
     6
 78
     2
 67
     7
 79
     3
170
     0
171
     0
290
     0
174
     0
 93
        1
 44
0.0
173
     0
291
     0
 45
0.0
1001
ACAD
1000
AcDbSavedByObjectVersion
1070
     0
  0
VISUALSTYLE
  5
35
102
{ACAD_REACTORS
330
2A
102
}
102
{ACAD_XDICTIONARY
360
30A
102
}
330
2A
100
AcDbVisualStyle
  2
Dim
 70
    11
 71
     2
 72
     2
 73
     0
 90
        0
 40
0.6
 41
30.0
 62
     5
 63
     7
 74
     1
 91
        4
 64
     7
 65
   257
 75
     1
175
     1
 42
1.0
 92
        8
 66
     7
 43
1.0
 76
     1
 77
     6
 78
     2
 67
     7
 79
     5
170
     0
171
     0
290
     0
174
     0
 93
        1
 44
-50.0
173
     0
291
     1
 45
0.0
1001
ACAD
1000
AcDbSavedByObjectVersion
1070
     0
  0
VISUALSTYLE
  5
3D
102
{ACAD_REACTORS
330
2A
102
}
102
{ACAD_XDICTIONARY
360
31A
102
}
330
2A
100
AcDbVisualStyle
  2
EdgeColorOff
 70
    22
 71
     2
 72
     2
 73
     0
 90
        0
 40
0.6
 41
30.0
 62
     5
 63
     7
 74
     1
 91
        4
 64
     7
 65
   257
 75
     1
175
     1
 42
1.0
 92
        8
 66
     7
 43
1.0
 76
     1
 77
     6
 78
     2
 67
     7
 79
     5
170
     0
171
     0
290
     0
174
     0
 93
        1
 44
0.0
173
     0
291
     1
 45
0.0
1001
ACAD
1000
AcDbSavedByObjectVersion
1070
     0
  0
VISUALSTYLE
  5
39
102
{ACAD_REACTORS
330
2A
102
}
102
{ACAD_XDICTIONARY
360
312
102
}
330
2A
100
AcDbVisualStyle
  2
Facepattern
 70
    15
 71
     2
 72
     2
 73
     0
 90
        0
 40
0.6
 41
30.0
 62
     5
 63
     7
 74
     1
 91
        4
 64
     7
 65
   257
 75
     1
175
     1
 42
1.0
 92
        8
 66
     7
 43
1.0
 76
     1
 77
     6
 78
     2
 67
     7
 79
     5
170
     0
171
     0
290
     0
174
     0
 93
        1
 44
0.0
173
     0
291
     1
 45
0.0
1001
ACAD
1000
AcDbSavedByObjectVersion
1070
     0
  0
VISUALSTYLE
  5
2B
102
{ACAD_REACTORS
330
2A
102
}
102
{ACAD_XDICTIONARY
360
2F6
102
}
330
2A
100
AcDbVisualStyle
  2
Flat
 70
     0
 71
     2
 72
     1
 73
     1
 90
        2
 40
0.6
 41
30.0
 62
     5
 63
     7
 74
     0
 91
        0
 64
     7
 65
   257
 75
     1
175
     1
 42
1.0
 92
        8
 66
     7
 43
1.0
 76
     1
 77
     6
 78
     2
 67
     7
 79
     5
170
     0
171
     0
290
     0
174
     0
 93
       13
 44
0.0
173
     0
291
     1
 45
0.0
1001
ACAD
1000
AcDbSavedByObjectVersion
1070
     0
  0
VISUALSTYLE
  5
2C
102
{ACAD_REACTORS
330
2A
102
}
102
{ACAD_XDICTIONARY
360
2F8
102
}
330
2A
100
AcDbVisualStyle
  2
FlatWithEdges
 70
     1
 71
     2
 72
     1
 73
     1
 90
        2
 40
0.6
 41
30.0
 62
     5
 63
     7
 74
     1
 91
        0
 64
     7
 65
   257
 75
     1
175
     1
 42
1.0
 92
        0
 66
   257
 43
1.0
 76
     1
 77
     6
 78
     2
 67
     7
 79
     5
170
     0
171
     0
290
     0
174
     0
 93
       13
 44
0.0
173
     0
291
     1
 45
0.0
1001
ACAD
1000
AcDbSavedByObjectVersion
1070
     0
  0
VISUALSTYLE
  5
2D
102
{ACAD_REACTORS
330
2A
102
}
102
{ACAD_XDICTIONARY
360
2FA
102
}
330
2A
100
AcDbVisualStyle
  2
Gouraud
 70
     2
 71
     2
 72
     2
 73
     1
 90
        2
 40
0.6
 41
30.0
 62
     5
 63
     7
 74
     0
 91
        0
 64
     7
 65
   257
 75
     1
175
     1
 42
1.0
 92
        0
 66
     7
 43
1.0
 76
     1
 77
     6
 78
     2
 67
     7
 79
     5
170
     0
171
     0
290
     0
174
     0
 93
       13
 44
0.0
173
     0
291
     1
 45
0.0
1001
ACAD
1000
AcDbSavedByObjectVersion
1070
     0
  0
VISUALSTYLE
  5
2E
102
{ACAD_REACTORS
330
2A
102
}
102
{ACAD_XDICTIONARY
360
2FC
102
}
330
2A
100
AcDbVisualStyle
  2
GouraudWithEdges
 70
     3
 71
     2
 72
     2
 73
     1
 90
        2
 40
0.6
 41
30.0
 62
     5
 63
     7
 74
     1
 91
        0
 64
     7
 65
   257
 75
     1
175
     1
 42
1.0
 92
        0
 66
   257
 43
1.0
 76
     1
 77
     6
 78
     2
 67
     7
 79
     5
170
     0
171
     0
290
     0
174
     0
 93
       13
 44
0.0
173
     0
291
     1
 45
0.0
1001
ACAD
1000
AcDbSavedByObjectVersion
1070
     0
  0
VISUALSTYLE
  5
31
102
{ACAD_REACTORS
330
2A
102
}
102
{ACAD_XDICTIONARY
360
302
102
}
330
2A
100
AcDbVisualStyle
  2
Hidden
 70
     6
 71
     1
 72
     2
 73
     2
 90
        0
 40
0.6
 41
30.0
 62
     5
 63
     7
 74
     2
 91
        2
 64
     7
 65
   257
 75
     2
175
     1
 42
40.0
 92
        0
 66
   257
 43
1.0
 76
     1
 77
     6
 78
     2
 67
     7
 79
     3
170
     0
171
     0
290
     0
174
     0
 93
        1
 44
0.0
173
     0
291
     0
 45
0.0
1001
ACAD
1000
AcDbSavedByObjectVersion
1070
     0
  0
VISUALSTYLE
  5
3B
102
{ACAD_REACTORS
330
2A
102
}
102
{ACAD_XDICTIONARY
360
316
102
}
330
2A
100
AcDbVisualStyle
  2
JitterOff
 70
    20
 71
     2
 72
     2
 73
     0
 90
        0
 40
0.6
 41
30.0
 62
     5
 63
     7
 74
     1
 91
        4
 64
     7
 65
   257
 75
     1
175
     1
 42
1.0
 92
       10
 66
     7
 43
1.0
 76
     1
 77
     6
 78
     2
 67
     7
 79
     5
170
     0
171
     0
290
     0
174
     0
 93
        1
 44
0.0
173
     0
291
     1
 45
0.0
1001
ACAD
1000
AcDbSavedByObjectVersion
1070
     0
  0
VISUALSTYLE
  5
38
102
{ACAD_REACTORS
330
2A
102
}
102
{ACAD_XDICTIONARY
360
310
102
}
330
2A
100
AcDbVisualStyle
  2
Linepattern
 70
    14
 71
     2
 72
     2
 73
     0
 90
        0
 40
0.6
 41
30.0
 62
     5
 63
     7
 74
     1
 91
        4
 64
     7
 65
   257
 75
     7
175
     7
 42
1.0
 92
        8
 66
     7
 43
1.0
 76
     1
 77
     6
 78
     2
 67
     7
 79
     5
170
     0
171
     0
290
     0
174
     0
 93
        1
 44
0.0
173
     0
291
     1
 45
0.0
1001
ACAD
1000
AcDbSavedByObjectVersion
1070
     0
  0
VISUALSTYLE
  5
3C
102
{ACAD_REACTORS
330
2A
102
}
102
{ACAD_XDICTIONARY
360
318
102
}
330
2A
100
AcDbVisualStyle
  2
OverhangOff
 70
    21
 71
     2
 72
     2
 73
     0
 90
        0
 40
0.6
 41
30.0
 62
     5
 63
     7
 74
     1
 91
        4
 64
     7
 65
   257
 75
     1
175
     1
 42
1.0
 92
        9
 66
     7
 43
1.0
 76
     1
 77
     6
 78
     2
 67
     7
 79
     5
170
     0
171
     0
290
     0
174
     0
 93
        1
 44
0.0
173
     0
291
     1
 45
0.0
1001
ACAD
1000
AcDbSavedByObjectVersion
1070
     0
  0
VISUALSTYLE
  5
33
102
{ACAD_REACTORS
330
2A
102
}
102
{ACAD_XDICTIONARY
360
306
102
}
330
2A
100
AcDbVisualStyle
  2
Realistic
 70
     8
 71
     2
 72
     3
 73
     0
 90
        2
 40
0.6
 41
30.0
 62
     5
 63
     7
 74
     0
 91
        0
 64
     7
 65
   257
 75
     1
175
     1
 42
1.0
 92
        8
 66
   257
 43
1.0
 76
     1
 77
     6
 78
     2
 67
     7
 79
     3
170
     0
171
     0
290
     0
174
     0
 93
       13
 44
0.0
173
     0
291
     0
 45
0.0
1001
ACAD
1000
AcDbSavedByObjectVersion
1070
     0
  0
VISUALSTYLE
  5
42
102
{ACAD_REACTORS
330
2A
102
}
102
{ACAD_XDICTIONARY
360
324
102
}
330
2A
100
AcDbVisualStyle
  2
Shaded
 70
    27
 71
     2
 72
     2
 73
     1
 90
        2
 40
0.6
 41
30.0
 62
     5
 63
     7
 74
     0
 91
        4
 64
     7
 65
   257
 75
     1
175
     1
 42
1.0
 92
        8
 66
   257
 43
1.0
 76
     1
 77
     6
 78
     2
 67
     8
 79
     3
170
     0
171
     0
290
     0
174
     0
 93
        5
 44
0.0
173
     0
291
     0
 45
0.0
1001
ACAD
1000
AcDbSavedByObjectVersion
1070
     0
  0
VISUALSTYLE
  5
41
102
{ACAD_REACTORS
330
2A
102
}
102
{ACAD_XDICTIONARY
360
322
102
}
330
2A
100
AcDbVisualStyle
  2
Shaded with edges
 70
    26
 71
     2
 72
     2
 73
     1
 90
        2
 40
0.6
 41
30.0
 62
     5
 63
     7
 74
     1
 91
       10
 64
     7
 65
   257
 75
     2
175
     1
 42
1.0
 92
        8
 66
   257
 43
1.0
 76
     1
 77
     6
 78
     2
 67
     7
 79
     3
170
     0
171
     0
290
     0
174
     0
 93
        5
 44
0.0
173
     0
291
     0
 45
0.0
1001
ACAD
1000
AcDbSavedByObjectVersion
1070
     0
  0
VISUALSTYLE
  5
3E
102
{ACAD_REACTORS
330
2A
102
}
102
{ACAD_XDICTIONARY
360
31C
102
}
330
2A
100
AcDbVisualStyle
  2
Shades of Gray
 70
    23
 71
     2
 72
     2
 73
     3
 90
        0
 40
0.6
 41
30.0
 62
     5
 63
     7
 74
     2
 91
        2
 64
     7
 65
     7
 75
     1
175
     1
 42
40.0
 92
        8
 66
     7
 43
1.0
 76
     1
 77
     6
 78
     2
 67
     7
 79
     3
170
     0
171
     0
290
     0
174
     0
 93
        1
 44
0.0
173
     0
291
     0
 45
0.0
1001
ACAD
1000
AcDbSavedByObjectVersion
1070
     0
  0
VISUALSTYLE
  5
3F
102
{ACAD_REACTORS
330
2A
102
}
102
{ACAD_XDICTIONARY
360
31E
102
}
330
2A
100
AcDbVisualStyle
  2
Sketchy
 70
    24
 71
     1
 72
     2
 73
     2
 90
        0
 40
0.6
 41
30.0
 62
     5
 63
     7
 74
     2
 91
        2
 64
     7
 65
     7
 75
     1
175
     1
 42
40.0
 92
       11
 66
     7
 43
1.0
 76
     1
 77
     6
 78
     2
 67
     7
 79
     6
170
     0
171
     0
290
     0
174
     0
 93
        1
 44
0.0
173
     0
291
     0
 45
0.0
1001
ACAD
1000
AcDbSavedByObjectVersion
1070
     0
  0
VISUALSTYLE
  5
37
102
{ACAD_REACTORS
330
2A
102
}
102
{ACAD_XDICTIONARY
360
30E
102
}
330
2A
100
AcDbVisualStyle
  2
Thicken
 70
    13
 71
     2
 72
     2
 73
     0
 90
        0
 40
0.6
 41
30.0
 62
     5
 63
     7
 74
     1
 91
        4
 64
     7
 65
   257
 75
     1
175
     1
 42
1.0
 92
       12
 66
     7
 43
1.0
 76
     1
 77
     6
 78
     2
 67
     7
 79
     5
170
     0
171
     0
290
     0
174
     0
 93
        1
 44
0.0
173
     0
291
     1
 45
0.0
1001
ACAD
1000
AcDbSavedByObjectVersion
1070
     0
  0
VISUALSTYLE
  5
30
102
{ACAD_REACTORS
330
2A
102
}
102
{ACAD_XDICTIONARY
360
300
102
}
330
2A
100
AcDbVisualStyle
  2
Wireframe
 70
     5
 71
     0
 72
     2
 73
     0
 90
        0
 40
0.6
 41
30.0
 62
     5
 63
     7
 74
     1
 91
        4
 64
     7
 65
   257
 75
     1
175
     1
 42
1.0
 92
        0
 66
   257
 43
1.0
 76
     1
 77
     6
 78
     2
 67
     7
 79
     3
170
     0
171
     0
290
     0
174
     0
 93
        1
 44
0.0
173
     0
291
     0
 45
0.0
1001
ACAD
1000
AcDbSavedByObjectVersion
1070
     0
  0
VISUALSTYLE
  5
40
102
{ACAD_REACTORS
330
2A
102
}
102
{ACAD_XDICTIONARY
360
320
102
}
330
2A
100
AcDbVisualStyle
  2
X-Ray
 70
    25
 71
     2
 72
     2
 73
     1
 90
        1
 40
0.5
 41
30.0
 62
     5
 63
     7
 74
     1
 91
        0
 64
     7
 65
   257
 75
     1
175
     1
 42
1.0
 92
        8
 66
     7
 43
1.0
 76
     1
 77
     6
 78
     2
 67
     7
 79
     3
170
     0
171
     0
290
     0
174
     0
 93
       13
 44
0.0
173
     0
291
     0
 45
0.0
1001
ACAD
1000
AcDbSavedByObjectVersion
1070
     0
  0
DICTIONARYVAR
  5
2F4
102
{ACAD_REACTORS
330
2EB
102
}
330
2EB
100
DictionaryVariables
280
     0
  1
1:1
  0
DICTIONARYVAR
  5
2F2
102
{ACAD_REACTORS
330
2EB
102
}
330
2EB
100
DictionaryVariables
280
     0
  1
2
  0
DICTIONARYVAR
  5
2F3
102
{ACAD_REACTORS
330
2EB
102
}
330
2EB
100
DictionaryVariables
280
     0
  1
1
  0
DICTIONARYVAR
  5
2F5
102
{ACAD_REACTORS
330
2EB
102
}
330
2EB
100
DictionaryVariables
280
     0
  1
1
  0
DICTIONARYVAR
  5
2EF
102
{ACAD_REACTORS
330
2EB
102
}
330
2EB
100
DictionaryVariables
280
     0
  1
80.000000
  0
DICTIONARYVAR
  5
2EE
102
{ACAD_REACTORS
330
2EB
102
}
330
2EB
100
DictionaryVariables
280
     0
  1
5.000000
  0
DICTIONARY
  5
328
330
45
100
AcDbDictionary
280
     1
281
     1
  3
ACAD_XREC_ROUNDTRIP
360
329
  0
DICTIONARY
  5
326
330
44
100
AcDbDictionary
280
     1
281
     1
  3
ACAD_XREC_ROUNDTRIP
360
327
  0
DICTIONARY
  5
32A
330
46
100
AcDbDictionary
280
     1
281
     1
  3
ACAD_XREC_ROUNDTRIP
360
32B
  0
DICTIONARY
  5
2FE
330
2F
100
AcDbDictionary
280
     1
281
     1
  3
ACAD_XREC_ROUNDTRIP
360
2FF
  0
DICTIONARY
  5
304
330
32
100
AcDbDictionary
280
     1
281
     1
  3
ACAD_XREC_ROUNDTRIP
360
305
  0
DICTIONARY
  5
30C
330
36
100
AcDbDictionary
280
     1
281
     1
  3
ACAD_XREC_ROUNDTRIP
360
30D
  0
DICTIONARY
  5
314
330
3A
100
AcDbDictionary
280
     1
281
     1
  3
ACAD_XREC_ROUNDTRIP
360
315
  0
DICTIONARY
  5
308
330
34
100
AcDbDictionary
280
     1
281
     1
  3
ACAD_XREC_ROUNDTRIP
360
309
  0
DICTIONARY
  5
30A
330
35
100
AcDbDictionary
280
     1
281
     1
  3
ACAD_XREC_ROUNDTRIP
360
30B
  0
DICTIONARY
  5
31A
330
3D
100
AcDbDictionary
280
     1
281
     1
  3
ACAD_XREC_ROUNDTRIP
360
31B
  0
DICTIONARY
  5
312
330
39
100
AcDbDictionary
280
     1
281
     1
  3
ACAD_XREC_ROUNDTRIP
360
313
  0
DICTIONARY
  5
2F6
330
2B
100
AcDbDictionary
280
     1
281
     1
  3
ACAD_XREC_ROUNDTRIP
360
2F7
  0
DICTIONARY
  5
2F8
330
2C
100
AcDbDictionary
280
     1
281
     1
  3
ACAD_XREC_ROUNDTRIP
360
2F9
  0
DICTIONARY
  5
2FA
330
2D
100
AcDbDictionary
280
     1
281
     1
  3
ACAD_XREC_ROUNDTRIP
360
2FB
  0
DICTIONARY
  5
2FC
330
2E
100
AcDbDictionary
280
     1
281
     1
  3
ACAD_XREC_ROUNDTRIP
360
2FD
  0
DICTIONARY
  5
302
330
31
100
AcDbDictionary
280
     1
281
     1
  3
ACAD_XREC_ROUNDTRIP
360
303
  0
DICTIONARY
  5
316
330
3B
100
AcDbDictionary
280
     1
281
     1
  3
ACAD_XREC_ROUNDTRIP
360
317
  0
DICTIONARY
  5
310
330
38
100
AcDbDictionary
280
     1
281
     1
  3
ACAD_XREC_ROUNDTRIP
360
311
  0
DICTIONARY
  5
318
330
3C
100
AcDbDictionary
280
     1
281
     1
  3
ACAD_XREC_ROUNDTRIP
360
319
  0
DICTIONARY
  5
306
330
33
100
AcDbDictionary
280
     1
281
     1
  3
ACAD_XREC_ROUNDTRIP
360
307
  0
DICTIONARY
  5
324
330
42
100
AcDbDictionary
280
     1
281
     1
  3
ACAD_XREC_ROUNDTRIP
360
325
  0
DICTIONARY
  5
322
330
41
100
AcDbDictionary
280
     1
281
     1
  3
ACAD_XREC_ROUNDTRIP
360
323
  0
DICTIONARY
  5
31C
330
3E
100
AcDbDictionary
280
     1
281
     1
  3
ACAD_XREC_ROUNDTRIP
360
31D
  0
DICTIONARY
  5
31E
330
3F
100
AcDbDictionary
280
     1
281
     1
  3
ACAD_XREC_ROUNDTRIP
360
31F
  0
DICTIONARY
  5
30E
330
37
100
AcDbDictionary
280
     1
281
     1
  3
ACAD_XREC_ROUNDTRIP
360
30F
  0
DICTIONARY
  5
300
330
30
100
AcDbDictionary
280
     1
281
     1
  3
ACAD_XREC_ROUNDTRIP
360
301
  0
DICTIONARY
  5
320
330
40
100
AcDbDictionary
280
     1
281
     1
  3
ACAD_XREC_ROUNDTRIP
360
321
  0
XRECORD
  5
329
102
{ACAD_REACTORS
330
328
102
}
330
328
100
AcDbXrecord
280
     1
102
MATERIAL
148
0.0
149
0.0
149
0.0
 93
        0
 94
      127
282
     0
 72
     1
 77
     1
171
     1
175
     1
179
     1
273
     0
  0
XRECORD
  5
327
102
{ACAD_REACTORS
330
326
102
}
330
326
100
AcDbXrecord
280
     1
102
MATERIAL
148
0.0
149
0.0
149
0.0
 93
        0
 94
      127
282
     0
 72
     1
 77
     1
171
     1
175
     1
179
     1
273
     0
  0
XRECORD
  5
32B
102
{ACAD_REACTORS
330
32A
102
}
330
32A
100
AcDbXrecord
280
     1
102
MATERIAL
148
0.0
149
0.0
149
0.0
 93
        0
 94
      127
282
     0
 72
     1
 77
     1
171
     1
175
     1
179
     1
273
     0
  0
XRECORD
  5
2FF
102
{ACAD_REACTORS
330
2FE
102
}
330
2FE
100
AcDbXrecord
280
     1
102
RTVSPropertyOp0
 70
     1
102
RTVSPropertyOp1
 70
     1
102
RTVSPropertyOp2
 70
     1
102
RTVSPropertyOp3
 70
     1
102
RTVSPropertyOp4
 70
     1
102
RTVSPropertyOp5
 70
     1
102
RTVSPropertyOp6
 70
     1
102
RTVSPropertyOp7
 70
     1
102
RTVSPropertyOp8
 70
     1
102
RTVSPropertyOp9
 70
     1
102
RTVSPropertyOp10
 70
     1
102
RTVSPropertyOp11
 70
     1
102
RTVSPropertyOp12
 70
     1
102
RTVSPropertyOp13
 70
     1
102
RTVSPropertyOp14
 70
     1
102
RTVSPropertyOp15
 70
     1
102
RTVSPropertyOp16
 70
     1
102
RTVSPropertyOp17
 70
     1
102
RTVSPropertyOp18
 70
     1
102
RTVSPropertyOp19
 70
     1
102
RTVSPropertyOp20
 70
     1
102
RTVSPropertyOp21
 70
     1
102
RTVSPropertyOp22
 70
     1
102
RTVSPropertyOp23
 70
     1
102
RTVSPropertyOp24
 70
     1
102
RTVSPropertyOp25
 70
     1
102
RTVSPropertyOp26
 70
     1
102
RTVSPropertyOp27
 70
     1
102
RTVSPropertyOp28
 70
     1
102
RTVSPropertyOp29
 70
     1
102
RTVSPropertyOp30
 70
     1
102
RTVSPropertyOp31
 70
     1
102
RTVSPropertyOp32
 70
     1
102
RTVSPropertyOp33
 70
     1
102
RTVSPropertyOp34
 70
     1
102
RTVSPropertyOp35
 70
     1
102
RTVSPropertyOp36
 70
     1
102
RTVSPropertyOp37
 70
     1
102
RTVSPropertyOp38
 70
     1
102
RTVSPropertyOp39
 70
     1
102
RTVSPropertyOp40
 70
     1
102
RTVSPropertyOp41
 70
     1
102
RTVSPropertyOp42
 70
     1
102
RTVSPropertyOp43
 70
     1
102
RTVSPropertyOp44
 70
     1
102
RTVSPropertyOp45
 70
     1
102
RTVSPropertyOp46
 70
     1
102
RTVSPropertyOp47
 70
     1
102
RTVSPropertyOp48
 70
     1
102
RTVSPropertyOp49
 70
     1
102
RTVSPropertyOp50
 70
     1
102
RTVSPropertyOp51
 70
     0
102
RTVSPropertyOp52
 70
     0
102
RTVSPropertyOp53
 70
     1
102
RTVSPropertyOp54
 70
     1
102
RTVSPropertyOp55
 70
     1
102
RTVSPropertyOp56
 70
     1
102
RTVSPropertyOp57
 70
     1
102
RTVSPost2010Prop28
280
     1
102
RTVSPost2010PropOp28
 70
     1
102
RTVSPost2010Prop29
280
     1
102
RTVSPost2010PropOp29
 70
     1
102
RTVSPost2010Prop30
280
     0
102
RTVSPost2010PropOp30
 70
     1
102
RTVSPost2010Prop31
280
     0
102
RTVSPost2010PropOp31
 70
     1
102
RTVSPost2010Prop32
280
     0
102
RTVSPost2010PropOp32
 70
     1
102
RTVSPost2010Prop33
280
     0
102
RTVSPost2010PropOp33
 70
     1
102
RTVSPost2010Prop34
280
     0
102
RTVSPost2010PropOp34
 70
     1
102
RTVSPost2010Prop35
280
     0
102
RTVSPost2010PropOp35
 70
     1
102
RTVSPost2010Prop36
280
     0
102
RTVSPost2010PropOp36
 70
     1
102
RTVSPost2010Prop37
 90
       50
102
RTVSPost2010PropOp37
 70
     1
102
RTVSPost2010Prop38
140
0.0
102
RTVSPost2010PropOp38
 70
     1
102
RTVSPost2010Prop39
140
1.0
102
RTVSPost2010PropOp39
 70
     1
102
RTVSPost2010Prop40
 90
        0
102
RTVSPost2010PropOp40
 70
     1
102
RTVSPost2010Prop41ColorIndex
 90
       18
102
RTVSPost2010Prop41ColorRGB
 90
        0
102
RTVSPost2010PropOp41
 70
     1
102
RTVSPost2010Prop42
 90
       50
102
RTVSPost2010PropOp42
 70
     1
102
RTVSPost2010Prop43
 90
        3
102
RTVSPost2010PropOp43
 70
     1
102
RTVSPost2010Prop44ColorIndex
 90
        5
102
RTVSPost2010Prop44ColorRGB
 90
      255
102
RTVSPost2010PropOp44
 70
     1
102
RTVSPost2010Prop45
280
     0
102
RTVSPost2010PropOp45
 70
     1
102
RTVSPost2010Prop46
 90
       50
102
RTVSPost2010PropOp46
 70
     1
102
RTVSPost2010Prop47
 90
       50
102
RTVSPost2010PropOp47
 70
     1
102
RTVSPost2010Prop48
 90
       50
102
RTVSPost2010PropOp48
 70
     1
102
RTVSPost2010Prop49
280
     0
102
RTVSPost2010PropOp49
 70
     1
102
RTVSPost2010Prop50
 90
       50
102
RTVSPost2010PropOp50
 70
     1
102
RTVSPost2010Prop51ColorIndex
 90
      256
102
RTVSPost2010Prop51ColorRGB
 90
-16777216
102
RTVSPost2010PropOp51
 70
     0
102
RTVSPost2010Prop52
140
1.0
102
RTVSPost2010PropOp52
 70
     0
102
RTVSPost2010Prop53
 90
        2
102
RTVSPost2010PropOp53
 70
     1
102
RTVSPost2010Prop54
  1
strokes_ogs.tif
102
RTVSPost2010PropOp54
 70
     1
102
RTVSPost2010Prop55
280
     0
102
RTVSPost2010PropOp55
 70
     1
102
RTVSPost2010Prop56
140
1.0
102
RTVSPost2010PropOp56
 70
     1
102
RTVSPost2010Prop57
140
1.0
102
RTVSPost2010PropOp57
 70
     1
  0
XRECORD
  5
305
102
{ACAD_REACTORS
330
304
102
}
330
304
100
AcDbXrecord
280
     1
102
RTVSPropertyOp0
 70
     1
102
RTVSPropertyOp1
 70
     1
102
RTVSPropertyOp2
 70
     1
102
RTVSPropertyOp3
 70
     1
102
RTVSPropertyOp4
 70
     1
102
RTVSPropertyOp5
 70
     1
102
RTVSPropertyOp6
 70
     1
102
RTVSPropertyOp7
 70
     1
102
RTVSPropertyOp8
 70
     1
102
RTVSPropertyOp9
 70
     1
102
RTVSPropertyOp10
 70
     1
102
RTVSPropertyOp11
 70
     1
102
RTVSPropertyOp12
 70
     1
102
RTVSPropertyOp13
 70
     1
102
RTVSPropertyOp14
 70
     1
102
RTVSPropertyOp15
 70
     1
102
RTVSPropertyOp16
 70
     1
102
RTVSPropertyOp17
 70
     1
102
RTVSPropertyOp18
 70
     1
102
RTVSPropertyOp19
 70
     1
102
RTVSPropertyOp20
 70
     1
102
RTVSPropertyOp21
 70
     1
102
RTVSPropertyOp22
 70
     1
102
RTVSPropertyOp23
 70
     1
102
RTVSPropertyOp24
 70
     1
102
RTVSPropertyOp25
 70
     1
102
RTVSPropertyOp26
 70
     1
102
RTVSPropertyOp27
 70
     1
102
RTVSPropertyOp28
 70
     1
102
RTVSPropertyOp29
 70
     1
102
RTVSPropertyOp30
 70
     1
102
RTVSPropertyOp31
 70
     1
102
RTVSPropertyOp32
 70
     1
102
RTVSPropertyOp33
 70
     1
102
RTVSPropertyOp34
 70
     1
102
RTVSPropertyOp35
 70
     1
102
RTVSPropertyOp36
 70
     1
102
RTVSPropertyOp37
 70
     1
102
RTVSPropertyOp38
 70
     1
102
RTVSPropertyOp39
 70
     1
102
RTVSPropertyOp40
 70
     1
102
RTVSPropertyOp41
 70
     1
102
RTVSPropertyOp42
 70
     1
102
RTVSPropertyOp43
 70
     1
102
RTVSPropertyOp44
 70
     1
102
RTVSPropertyOp45
 70
     1
102
RTVSPropertyOp46
 70
     1
102
RTVSPropertyOp47
 70
     1
102
RTVSPropertyOp48
 70
     1
102
RTVSPropertyOp49
 70
     1
102
RTVSPropertyOp50
 70
     1
102
RTVSPropertyOp51
 70
     0
102
RTVSPropertyOp52
 70
     0
102
RTVSPropertyOp53
 70
     1
102
RTVSPropertyOp54
 70
     1
102
RTVSPropertyOp55
 70
     1
102
RTVSPropertyOp56
 70
     1
102
RTVSPropertyOp57
 70
     1
102
RTVSPost2010Prop28
280
     0
102
RTVSPost2010PropOp28
 70
     1
102
RTVSPost2010Prop29
280
     1
102
RTVSPost2010PropOp29
 70
     1
102
RTVSPost2010Prop30
280
     1
102
RTVSPost2010PropOp30
 70
     1
102
RTVSPost2010Prop31
280
     0
102
RTVSPost2010PropOp31
 70
     1
102
RTVSPost2010Prop32
280
     0
102
RTVSPost2010PropOp32
 70
     1
102
RTVSPost2010Prop33
280
     0
102
RTVSPost2010PropOp33
 70
     1
102
RTVSPost2010Prop34
280
     0
102
RTVSPost2010PropOp34
 70
     1
102
RTVSPost2010Prop35
280
     0
102
RTVSPost2010PropOp35
 70
     1
102
RTVSPost2010Prop36
280
     0
102
RTVSPost2010PropOp36
 70
     1
102
RTVSPost2010Prop37
 90
       50
102
RTVSPost2010PropOp37
 70
     1
102
RTVSPost2010Prop38
140
0.0
102
RTVSPost2010PropOp38
 70
     1
102
RTVSPost2010Prop39
140
1.0
102
RTVSPost2010PropOp39
 70
     1
102
RTVSPost2010Prop40
 90
        0
102
RTVSPost2010PropOp40
 70
     1
102
RTVSPost2010Prop41ColorIndex
 90
       18
102
RTVSPost2010Prop41ColorRGB
 90
        0
102
RTVSPost2010PropOp41
 70
     1
102
RTVSPost2010Prop42
 90
       50
102
RTVSPost2010PropOp42
 70
     1
102
RTVSPost2010Prop43
 90
        3
102
RTVSPost2010PropOp43
 70
     1
102
RTVSPost2010Prop44ColorIndex
 90
        5
102
RTVSPost2010Prop44ColorRGB
 90
      255
102
RTVSPost2010PropOp44
 70
     1
102
RTVSPost2010Prop45
280
     0
102
RTVSPost2010PropOp45
 70
     1
102
RTVSPost2010Prop46
 90
       50
102
RTVSPost2010PropOp46
 70
     1
102
RTVSPost2010Prop47
 90
       50
102
RTVSPost2010PropOp47
 70
     1
102
RTVSPost2010Prop48
 90
       50
102
RTVSPost2010PropOp48
 70
     1
102
RTVSPost2010Prop49
280
     0
102
RTVSPost2010PropOp49
 70
     1
102
RTVSPost2010Prop50
 90
       50
102
RTVSPost2010PropOp50
 70
     1
102
RTVSPost2010Prop51ColorIndex
 90
      256
102
RTVSPost2010Prop51ColorRGB
 90
-16777216
102
RTVSPost2010PropOp51
 70
     0
102
RTVSPost2010Prop52
140
1.0
102
RTVSPost2010PropOp52
 70
     0
102
RTVSPost2010Prop53
 90
        2
102
RTVSPost2010PropOp53
 70
     1
102
RTVSPost2010Prop54
  1
strokes_ogs.tif
102
RTVSPost2010PropOp54
 70
     1
102
RTVSPost2010Prop55
280
     0
102
RTVSPost2010PropOp55
 70
     1
102
RTVSPost2010Prop56
140
1.0
102
RTVSPost2010PropOp56
 70
     1
102
RTVSPost2010Prop57
140
1.0
102
RTVSPost2010PropOp57
 70
     1
  0
XRECORD
  5
30D
102
{ACAD_REACTORS
330
30C
102
}
330
30C
100
AcDbXrecord
280
     1
102
RTVSPropertyOp0
 70
     1
102
RTVSPropertyOp1
 70
     1
102
RTVSPropertyOp2
 70
     1
102
RTVSPropertyOp3
 70
     1
102
RTVSPropertyOp4
 70
     1
102
RTVSPropertyOp5
 70
     1
102
RTVSPropertyOp6
 70
     1
102
RTVSPropertyOp7
 70
     1
102
RTVSPropertyOp8
 70
     1
102
RTVSPropertyOp9
 70
     1
102
RTVSPropertyOp10
 70
     1
102
RTVSPropertyOp11
 70
     1
102
RTVSPropertyOp12
 70
     1
102
RTVSPropertyOp13
 70
     1
102
RTVSPropertyOp14
 70
     1
102
RTVSPropertyOp15
 70
     1
102
RTVSPropertyOp16
 70
     1
102
RTVSPropertyOp17
 70
     1
102
RTVSPropertyOp18
 70
     1
102
RTVSPropertyOp19
 70
     1
102
RTVSPropertyOp20
 70
     1
102
RTVSPropertyOp21
 70
     1
102
RTVSPropertyOp22
 70
     1
102
RTVSPropertyOp23
 70
     1
102
RTVSPropertyOp24
 70
     1
102
RTVSPropertyOp25
 70
     1
102
RTVSPropertyOp26
 70
     1
102
RTVSPropertyOp27
 70
     1
102
RTVSPropertyOp28
 70
     1
102
RTVSPropertyOp29
 70
     1
102
RTVSPropertyOp30
 70
     1
102
RTVSPropertyOp31
 70
     1
102
RTVSPropertyOp32
 70
     1
102
RTVSPropertyOp33
 70
     1
102
RTVSPropertyOp34
 70
     1
102
RTVSPropertyOp35
 70
     1
102
RTVSPropertyOp36
 70
     1
102
RTVSPropertyOp37
 70
     1
102
RTVSPropertyOp38
 70
     1
102
RTVSPropertyOp39
 70
     1
102
RTVSPropertyOp40
 70
     1
102
RTVSPropertyOp41
 70
     1
102
RTVSPropertyOp42
 70
     1
102
RTVSPropertyOp43
 70
     1
102
RTVSPropertyOp44
 70
     1
102
RTVSPropertyOp45
 70
     1
102
RTVSPropertyOp46
 70
     1
102
RTVSPropertyOp47
 70
     1
102
RTVSPropertyOp48
 70
     1
102
RTVSPropertyOp49
 70
     1
102
RTVSPropertyOp50
 70
     1
102
RTVSPropertyOp51
 70
     0
102
RTVSPropertyOp52
 70
     0
102
RTVSPropertyOp53
 70
     1
102
RTVSPropertyOp54
 70
     1
102
RTVSPropertyOp55
 70
     1
102
RTVSPropertyOp56
 70
     1
102
RTVSPropertyOp57
 70
     1
102
RTVSPost2010Prop28
280
     0
102
RTVSPost2010PropOp28
 70
     1
102
RTVSPost2010Prop29
280
     1
102
RTVSPost2010PropOp29
 70
     1
102
RTVSPost2010Prop30
280
     1
102
RTVSPost2010PropOp30
 70
     1
102
RTVSPost2010Prop31
280
     0
102
RTVSPost2010PropOp31
 70
     1
102
RTVSPost2010Prop32
280
     0
102
RTVSPost2010PropOp32
 70
     1
102
RTVSPost2010Prop33
280
     0
102
RTVSPost2010PropOp33
 70
     1
102
RTVSPost2010Prop34
280
     0
102
RTVSPost2010PropOp34
 70
     1
102
RTVSPost2010Prop35
280
     0
102
RTVSPost2010PropOp35
 70
     1
102
RTVSPost2010Prop36
280
     0
102
RTVSPost2010PropOp36
 70
     1
102
RTVSPost2010Prop37
 90
       50
102
RTVSPost2010PropOp37
 70
     1
102
RTVSPost2010Prop38
140
0.0
102
RTVSPost2010PropOp38
 70
     1
102
RTVSPost2010Prop39
140
1.0
102
RTVSPost2010PropOp39
 70
     1
102
RTVSPost2010Prop40
 90
        0
102
RTVSPost2010PropOp40
 70
     1
102
RTVSPost2010Prop41ColorIndex
 90
       18
102
RTVSPost2010Prop41ColorRGB
 90
        0
102
RTVSPost2010PropOp41
 70
     1
102
RTVSPost2010Prop42
 90
       50
102
RTVSPost2010PropOp42
 70
     1
102
RTVSPost2010Prop43
 90
        3
102
RTVSPost2010PropOp43
 70
     1
102
RTVSPost2010Prop44ColorIndex
 90
        5
102
RTVSPost2010Prop44ColorRGB
 90
      255
102
RTVSPost2010PropOp44
 70
     1
102
RTVSPost2010Prop45
280
     0
102
RTVSPost2010PropOp45
 70
     1
102
RTVSPost2010Prop46
 90
       50
102
RTVSPost2010PropOp46
 70
     1
102
RTVSPost2010Prop47
 90
       50
102
RTVSPost2010PropOp47
 70
     1
102
RTVSPost2010Prop48
 90
       50
102
RTVSPost2010PropOp48
 70
     1
102
RTVSPost2010Prop49
280
     0
102
RTVSPost2010PropOp49
 70
     1
102
RTVSPost2010Prop50
 90
       50
102
RTVSPost2010PropOp50
 70
     1
102
RTVSPost2010Prop51ColorIndex
 90
      256
102
RTVSPost2010Prop51ColorRGB
 90
-16777216
102
RTVSPost2010PropOp51
 70
     0
102
RTVSPost2010Prop52
140
1.0
102
RTVSPost2010PropOp52
 70
     0
102
RTVSPost2010Prop53
 90
        2
102
RTVSPost2010PropOp53
 70
     1
102
RTVSPost2010Prop54
  1
strokes_ogs.tif
102
RTVSPost2010PropOp54
 70
     1
102
RTVSPost2010Prop55
280
     0
102
RTVSPost2010PropOp55
 70
     1
102
RTVSPost2010Prop56
140
1.0
102
RTVSPost2010PropOp56
 70
     1
102
RTVSPost2010Prop57
140
1.0
102
RTVSPost2010PropOp57
 70
     1
  0
XRECORD
  5
315
102
{ACAD_REACTORS
330
314
102
}
330
314
100
AcDbXrecord
280
     1
102
RTVSPropertyOp0
 70
     1
102
RTVSPropertyOp1
 70
     1
102
RTVSPropertyOp2
 70
     1
102
RTVSPropertyOp3
 70
     1
102
RTVSPropertyOp4
 70
     1
102
RTVSPropertyOp5
 70
     1
102
RTVSPropertyOp6
 70
     1
102
RTVSPropertyOp7
 70
     1
102
RTVSPropertyOp8
 70
     1
102
RTVSPropertyOp9
 70
     1
102
RTVSPropertyOp10
 70
     1
102
RTVSPropertyOp11
 70
     1
102
RTVSPropertyOp12
 70
     1
102
RTVSPropertyOp13
 70
     1
102
RTVSPropertyOp14
 70
     1
102
RTVSPropertyOp15
 70
     1
102
RTVSPropertyOp16
 70
     1
102
RTVSPropertyOp17
 70
     1
102
RTVSPropertyOp18
 70
     1
102
RTVSPropertyOp19
 70
     1
102
RTVSPropertyOp20
 70
     1
102
RTVSPropertyOp21
 70
     1
102
RTVSPropertyOp22
 70
     1
102
RTVSPropertyOp23
 70
     1
102
RTVSPropertyOp24
 70
     1
102
RTVSPropertyOp25
 70
     1
102
RTVSPropertyOp26
 70
     1
102
RTVSPropertyOp27
 70
     1
102
RTVSPropertyOp28
 70
     1
102
RTVSPropertyOp29
 70
     1
102
RTVSPropertyOp30
 70
     1
102
RTVSPropertyOp31
 70
     1
102
RTVSPropertyOp32
 70
     1
102
RTVSPropertyOp33
 70
     1
102
RTVSPropertyOp34
 70
     1
102
RTVSPropertyOp35
 70
     1
102
RTVSPropertyOp36
 70
     1
102
RTVSPropertyOp37
 70
     1
102
RTVSPropertyOp38
 70
     1
102
RTVSPropertyOp39
 70
     1
102
RTVSPropertyOp40
 70
     1
102
RTVSPropertyOp41
 70
     1
102
RTVSPropertyOp42
 70
     1
102
RTVSPropertyOp43
 70
     1
102
RTVSPropertyOp44
 70
     1
102
RTVSPropertyOp45
 70
     1
102
RTVSPropertyOp46
 70
     1
102
RTVSPropertyOp47
 70
     1
102
RTVSPropertyOp48
 70
     1
102
RTVSPropertyOp49
 70
     1
102
RTVSPropertyOp50
 70
     1
102
RTVSPropertyOp51
 70
     0
102
RTVSPropertyOp52
 70
     0
102
RTVSPropertyOp53
 70
     1
102
RTVSPropertyOp54
 70
     1
102
RTVSPropertyOp55
 70
     1
102
RTVSPropertyOp56
 70
     1
102
RTVSPropertyOp57
 70
     1
102
RTVSPost2010Prop28
280
     0
102
RTVSPost2010PropOp28
 70
     1
102
RTVSPost2010Prop29
280
     1
102
RTVSPost2010PropOp29
 70
     1
102
RTVSPost2010Prop30
280
     1
102
RTVSPost2010PropOp30
 70
     1
102
RTVSPost2010Prop31
280
     0
102
RTVSPost2010PropOp31
 70
     1
102
RTVSPost2010Prop32
280
     0
102
RTVSPost2010PropOp32
 70
     1
102
RTVSPost2010Prop33
280
     0
102
RTVSPost2010PropOp33
 70
     1
102
RTVSPost2010Prop34
280
     0
102
RTVSPost2010PropOp34
 70
     1
102
RTVSPost2010Prop35
280
     0
102
RTVSPost2010PropOp35
 70
     1
102
RTVSPost2010Prop36
280
     0
102
RTVSPost2010PropOp36
 70
     1
102
RTVSPost2010Prop37
 90
       50
102
RTVSPost2010PropOp37
 70
     1
102
RTVSPost2010Prop38
140
0.0
102
RTVSPost2010PropOp38
 70
     1
102
RTVSPost2010Prop39
140
1.0
102
RTVSPost2010PropOp39
 70
     1
102
RTVSPost2010Prop40
 90
        0
102
RTVSPost2010PropOp40
 70
     1
102
RTVSPost2010Prop41ColorIndex
 90
       18
102
RTVSPost2010Prop41ColorRGB
 90
        0
102
RTVSPost2010PropOp41
 70
     1
102
RTVSPost2010Prop42
 90
       50
102
RTVSPost2010PropOp42
 70
     1
102
RTVSPost2010Prop43
 90
        3
102
RTVSPost2010PropOp43
 70
     1
102
RTVSPost2010Prop44ColorIndex
 90
        5
102
RTVSPost2010Prop44ColorRGB
 90
      255
102
RTVSPost2010PropOp44
 70
     1
102
RTVSPost2010Prop45
280
     0
102
RTVSPost2010PropOp45
 70
     1
102
RTVSPost2010Prop46
 90
       50
102
RTVSPost2010PropOp46
 70
     1
102
RTVSPost2010Prop47
 90
       50
102
RTVSPost2010PropOp47
 70
     1
102
RTVSPost2010Prop48
 90
       50
102
RTVSPost2010PropOp48
 70
     1
102
RTVSPost2010Prop49
280
     0
102
RTVSPost2010PropOp49
 70
     1
102
RTVSPost2010Prop50
 90
       50
102
RTVSPost2010PropOp50
 70
     1
102
RTVSPost2010Prop51ColorIndex
 90
      256
102
RTVSPost2010Prop51ColorRGB
 90
-16777216
102
RTVSPost2010PropOp51
 70
     0
102
RTVSPost2010Prop52
140
1.0
102
RTVSPost2010PropOp52
 70
     0
102
RTVSPost2010Prop53
 90
        2
102
RTVSPost2010PropOp53
 70
     1
102
RTVSPost2010Prop54
  1
strokes_ogs.tif
102
RTVSPost2010PropOp54
 70
     1
102
RTVSPost2010Prop55
280
     0
102
RTVSPost2010PropOp55
 70
     1
102
RTVSPost2010Prop56
140
1.0
102
RTVSPost2010PropOp56
 70
     1
102
RTVSPost2010Prop57
140
1.0
102
RTVSPost2010PropOp57
 70
     1
  0
XRECORD
  5
309
102
{ACAD_REACTORS
330
308
102
}
330
308
100
AcDbXrecord
280
     1
102
RTVSPropertyOp0
 70
     1
102
RTVSPropertyOp1
 70
     1
102
RTVSPropertyOp2
 70
     1
102
RTVSPropertyOp3
 70
     1
102
RTVSPropertyOp4
 70
     1
102
RTVSPropertyOp5
 70
     1
102
RTVSPropertyOp6
 70
     1
102
RTVSPropertyOp7
 70
     1
102
RTVSPropertyOp8
 70
     1
102
RTVSPropertyOp9
 70
     1
102
RTVSPropertyOp10
 70
     1
102
RTVSPropertyOp11
 70
     1
102
RTVSPropertyOp12
 70
     1
102
RTVSPropertyOp13
 70
     1
102
RTVSPropertyOp14
 70
     1
102
RTVSPropertyOp15
 70
     1
102
RTVSPropertyOp16
 70
     1
102
RTVSPropertyOp17
 70
     1
102
RTVSPropertyOp18
 70
     1
102
RTVSPropertyOp19
 70
     1
102
RTVSPropertyOp20
 70
     1
102
RTVSPropertyOp21
 70
     1
102
RTVSPropertyOp22
 70
     1
102
RTVSPropertyOp23
 70
     1
102
RTVSPropertyOp24
 70
     1
102
RTVSPropertyOp25
 70
     1
102
RTVSPropertyOp26
 70
     1
102
RTVSPropertyOp27
 70
     1
102
RTVSPropertyOp28
 70
     1
102
RTVSPropertyOp29
 70
     1
102
RTVSPropertyOp30
 70
     1
102
RTVSPropertyOp31
 70
     1
102
RTVSPropertyOp32
 70
     1
102
RTVSPropertyOp33
 70
     1
102
RTVSPropertyOp34
 70
     1
102
RTVSPropertyOp35
 70
     1
102
RTVSPropertyOp36
 70
     1
102
RTVSPropertyOp37
 70
     1
102
RTVSPropertyOp38
 70
     1
102
RTVSPropertyOp39
 70
     1
102
RTVSPropertyOp40
 70
     1
102
RTVSPropertyOp41
 70
     1
102
RTVSPropertyOp42
 70
     1
102
RTVSPropertyOp43
 70
     1
102
RTVSPropertyOp44
 70
     1
102
RTVSPropertyOp45
 70
     1
102
RTVSPropertyOp46
 70
     1
102
RTVSPropertyOp47
 70
     1
102
RTVSPropertyOp48
 70
     1
102
RTVSPropertyOp49
 70
     1
102
RTVSPropertyOp50
 70
     1
102
RTVSPropertyOp51
 70
     0
102
RTVSPropertyOp52
 70
     0
102
RTVSPropertyOp53
 70
     1
102
RTVSPropertyOp54
 70
     1
102
RTVSPropertyOp55
 70
     1
102
RTVSPropertyOp56
 70
     1
102
RTVSPropertyOp57
 70
     1
102
RTVSPost2010Prop28
280
     0
102
RTVSPost2010PropOp28
 70
     1
102
RTVSPost2010Prop29
280
     1
102
RTVSPost2010PropOp29
 70
     1
102
RTVSPost2010Prop30
280
     1
102
RTVSPost2010PropOp30
 70
     1
102
RTVSPost2010Prop31
280
     0
102
RTVSPost2010PropOp31
 70
     1
102
RTVSPost2010Prop32
280
     0
102
RTVSPost2010PropOp32
 70
     1
102
RTVSPost2010Prop33
280
     0
102
RTVSPost2010PropOp33
 70
     1
102
RTVSPost2010Prop34
280
     0
102
RTVSPost2010PropOp34
 70
     1
102
RTVSPost2010Prop35
280
     0
102
RTVSPost2010PropOp35
 70
     1
102
RTVSPost2010Prop36
280
     0
102
RTVSPost2010PropOp36
 70
     1
102
RTVSPost2010Prop37
 90
       50
102
RTVSPost2010PropOp37
 70
     1
102
RTVSPost2010Prop38
140
0.0
102
RTVSPost2010PropOp38
 70
     1
102
RTVSPost2010Prop39
140
1.0
102
RTVSPost2010PropOp39
 70
     1
102
RTVSPost2010Prop40
 90
        0
102
RTVSPost2010PropOp40
 70
     1
102
RTVSPost2010Prop41ColorIndex
 90
       18
102
RTVSPost2010Prop41ColorRGB
 90
        0
102
RTVSPost2010PropOp41
 70
     1
102
RTVSPost2010Prop42
 90
       50
102
RTVSPost2010PropOp42
 70
     1
102
RTVSPost2010Prop43
 90
        3
102
RTVSPost2010PropOp43
 70
     1
102
RTVSPost2010Prop44ColorIndex
 90
        5
102
RTVSPost2010Prop44ColorRGB
 90
      255
102
RTVSPost2010PropOp44
 70
     1
102
RTVSPost2010Prop45
280
     0
102
RTVSPost2010PropOp45
 70
     1
102
RTVSPost2010Prop46
 90
       50
102
RTVSPost2010PropOp46
 70
     1
102
RTVSPost2010Prop47
 90
       50
102
RTVSPost2010PropOp47
 70
     1
102
RTVSPost2010Prop48
 90
       50
102
RTVSPost2010PropOp48
 70
     1
102
RTVSPost2010Prop49
280
     0
102
RTVSPost2010PropOp49
 70
     1
102
RTVSPost2010Prop50
 90
       50
102
RTVSPost2010PropOp50
 70
     1
102
RTVSPost2010Prop51ColorIndex
 90
      256
102
RTVSPost2010Prop51ColorRGB
 90
-16777216
102
RTVSPost2010PropOp51
 70
     0
102
RTVSPost2010Prop52
140
1.0
102
RTVSPost2010PropOp52
 70
     0
102
RTVSPost2010Prop53
 90
        2
102
RTVSPost2010PropOp53
 70
     1
102
RTVSPost2010Prop54
  1
strokes_ogs.tif
102
RTVSPost2010PropOp54
 70
     1
102
RTVSPost2010Prop55
280
     0
102
RTVSPost2010PropOp55
 70
     1
102
RTVSPost2010Prop56
140
1.0
102
RTVSPost2010PropOp56
 70
     1
102
RTVSPost2010Prop57
140
1.0
102
RTVSPost2010PropOp57
 70
     1
  0
XRECORD
  5
30B
102
{ACAD_REACTORS
330
30A
102
}
330
30A
100
AcDbXrecord
280
     1
102
RTVSPropertyOp0
 70
     1
102
RTVSPropertyOp1
 70
     1
102
RTVSPropertyOp2
 70
     1
102
RTVSPropertyOp3
 70
     1
102
RTVSPropertyOp4
 70
     1
102
RTVSPropertyOp5
 70
     1
102
RTVSPropertyOp6
 70
     1
102
RTVSPropertyOp7
 70
     1
102
RTVSPropertyOp8
 70
     1
102
RTVSPropertyOp9
 70
     1
102
RTVSPropertyOp10
 70
     1
102
RTVSPropertyOp11
 70
     1
102
RTVSPropertyOp12
 70
     1
102
RTVSPropertyOp13
 70
     1
102
RTVSPropertyOp14
 70
     1
102
RTVSPropertyOp15
 70
     1
102
RTVSPropertyOp16
 70
     1
102
RTVSPropertyOp17
 70
     1
102
RTVSPropertyOp18
 70
     1
102
RTVSPropertyOp19
 70
     1
102
RTVSPropertyOp20
 70
     1
102
RTVSPropertyOp21
 70
     1
102
RTVSPropertyOp22
 70
     1
102
RTVSPropertyOp23
 70
     1
102
RTVSPropertyOp24
 70
     1
102
RTVSPropertyOp25
 70
     1
102
RTVSPropertyOp26
 70
     1
102
RTVSPropertyOp27
 70
     1
102
RTVSPropertyOp28
 70
     1
102
RTVSPropertyOp29
 70
     1
102
RTVSPropertyOp30
 70
     1
102
RTVSPropertyOp31
 70
     1
102
RTVSPropertyOp32
 70
     1
102
RTVSPropertyOp33
 70
     1
102
RTVSPropertyOp34
 70
     1
102
RTVSPropertyOp35
 70
     1
102
RTVSPropertyOp36
 70
     1
102
RTVSPropertyOp37
 70
     1
102
RTVSPropertyOp38
 70
     1
102
RTVSPropertyOp39
 70
     1
102
RTVSPropertyOp40
 70
     1
102
RTVSPropertyOp41
 70
     1
102
RTVSPropertyOp42
 70
     1
102
RTVSPropertyOp43
 70
     1
102
RTVSPropertyOp44
 70
     1
102
RTVSPropertyOp45
 70
     1
102
RTVSPropertyOp46
 70
     1
102
RTVSPropertyOp47
 70
     1
102
RTVSPropertyOp48
 70
     1
102
RTVSPropertyOp49
 70
     1
102
RTVSPropertyOp50
 70
     1
102
RTVSPropertyOp51
 70
     0
102
RTVSPropertyOp52
 70
     0
102
RTVSPropertyOp53
 70
     1
102
RTVSPropertyOp54
 70
     1
102
RTVSPropertyOp55
 70
     1
102
RTVSPropertyOp56
 70
     1
102
RTVSPropertyOp57
 70
     1
102
RTVSPost2010Prop28
280
     0
102
RTVSPost2010PropOp28
 70
     1
102
RTVSPost2010Prop29
280
     1
102
RTVSPost2010PropOp29
 70
     1
102
RTVSPost2010Prop30
280
     1
102
RTVSPost2010PropOp30
 70
     1
102
RTVSPost2010Prop31
280
     0
102
RTVSPost2010PropOp31
 70
     1
102
RTVSPost2010Prop32
280
     0
102
RTVSPost2010PropOp32
 70
     1
102
RTVSPost2010Prop33
280
     0
102
RTVSPost2010PropOp33
 70
     1
102
RTVSPost2010Prop34
280
     0
102
RTVSPost2010PropOp34
 70
     1
102
RTVSPost2010Prop35
280
     0
102
RTVSPost2010PropOp35
 70
     1
102
RTVSPost2010Prop36
280
     0
102
RTVSPost2010PropOp36
 70
     1
102
RTVSPost2010Prop37
 90
       50
102
RTVSPost2010PropOp37
 70
     1
102
RTVSPost2010Prop38
140
0.0
102
RTVSPost2010PropOp38
 70
     1
102
RTVSPost2010Prop39
140
1.0
102
RTVSPost2010PropOp39
 70
     1
102
RTVSPost2010Prop40
 90
        0
102
RTVSPost2010PropOp40
 70
     1
102
RTVSPost2010Prop41ColorIndex
 90
       18
102
RTVSPost2010Prop41ColorRGB
 90
        0
102
RTVSPost2010PropOp41
 70
     1
102
RTVSPost2010Prop42
 90
       50
102
RTVSPost2010PropOp42
 70
     1
102
RTVSPost2010Prop43
 90
        3
102
RTVSPost2010PropOp43
 70
     1
102
RTVSPost2010Prop44ColorIndex
 90
        5
102
RTVSPost2010Prop44ColorRGB
 90
      255
102
RTVSPost2010PropOp44
 70
     1
102
RTVSPost2010Prop45
280
     0
102
RTVSPost2010PropOp45
 70
     1
102
RTVSPost2010Prop46
 90
       50
102
RTVSPost2010PropOp46
 70
     1
102
RTVSPost2010Prop47
 90
       50
102
RTVSPost2010PropOp47
 70
     1
102
RTVSPost2010Prop48
 90
       50
102
RTVSPost2010PropOp48
 70
     1
102
RTVSPost2010Prop49
280
     0
102
RTVSPost2010PropOp49
 70
     1
102
RTVSPost2010Prop50
 90
       50
102
RTVSPost2010PropOp50
 70
     1
102
RTVSPost2010Prop51ColorIndex
 90
      256
102
RTVSPost2010Prop51ColorRGB
 90
-16777216
102
RTVSPost2010PropOp51
 70
     0
102
RTVSPost2010Prop52
140
1.0
102
RTVSPost2010PropOp52
 70
     0
102
RTVSPost2010Prop53
 90
        2
102
RTVSPost2010PropOp53
 70
     1
102
RTVSPost2010Prop54
  1
strokes_ogs.tif
102
RTVSPost2010PropOp54
 70
     1
102
RTVSPost2010Prop55
280
     0
102
RTVSPost2010PropOp55
 70
     1
102
RTVSPost2010Prop56
140
1.0
102
RTVSPost2010PropOp56
 70
     1
102
RTVSPost2010Prop57
140
1.0
102
RTVSPost2010PropOp57
 70
     1
  0
XRECORD
  5
31B
102
{ACAD_REACTORS
330
31A
102
}
330
31A
100
AcDbXrecord
280
     1
102
RTVSPropertyOp0
 70
     0
102
RTVSPropertyOp1
 70
     0
102
RTVSPropertyOp2
 70
     0
102
RTVSPropertyOp3
 70
     0
102
RTVSPropertyOp4
 70
     0
102
RTVSPropertyOp5
 70
     0
102
RTVSPropertyOp6
 70
     0
102
RTVSPropertyOp7
 70
     0
102
RTVSPropertyOp8
 70
     0
102
RTVSPropertyOp9
 70
     0
102
RTVSPropertyOp10
 70
     0
102
RTVSPropertyOp11
 70
     0
102
RTVSPropertyOp12
 70
     0
102
RTVSPropertyOp13
 70
     0
102
RTVSPropertyOp14
 70
     2
102
RTVSPropertyOp15
 70
     0
102
RTVSPropertyOp16
 70
     0
102
RTVSPropertyOp17
 70
     0
102
RTVSPropertyOp18
 70
     0
102
RTVSPropertyOp19
 70
     0
102
RTVSPropertyOp20
 70
     0
102
RTVSPropertyOp21
 70
     0
102
RTVSPropertyOp22
 70
     0
102
RTVSPropertyOp23
 70
     0
102
RTVSPropertyOp24
 70
     0
102
RTVSPropertyOp25
 70
     0
102
RTVSPropertyOp26
 70
     0
102
RTVSPropertyOp27
 70
     0
102
RTVSPropertyOp28
 70
     0
102
RTVSPropertyOp29
 70
     0
102
RTVSPropertyOp30
 70
     0
102
RTVSPropertyOp31
 70
     0
102
RTVSPropertyOp32
 70
     0
102
RTVSPropertyOp33
 70
     0
102
RTVSPropertyOp34
 70
     0
102
RTVSPropertyOp35
 70
     0
102
RTVSPropertyOp36
 70
     0
102
RTVSPropertyOp37
 70
     0
102
RTVSPropertyOp38
 70
     0
102
RTVSPropertyOp39
 70
     0
102
RTVSPropertyOp40
 70
     0
102
RTVSPropertyOp41
 70
     0
102
RTVSPropertyOp42
 70
     0
102
RTVSPropertyOp43
 70
     0
102
RTVSPropertyOp44
 70
     0
102
RTVSPropertyOp45
 70
     0
102
RTVSPropertyOp46
 70
     0
102
RTVSPropertyOp47
 70
     0
102
RTVSPropertyOp48
 70
     0
102
RTVSPropertyOp49
 70
     0
102
RTVSPropertyOp50
 70
     0
102
RTVSPropertyOp51
 70
     0
102
RTVSPropertyOp52
 70
     0
102
RTVSPropertyOp53
 70
     0
102
RTVSPropertyOp54
 70
     0
102
RTVSPropertyOp55
 70
     0
102
RTVSPropertyOp56
 70
     0
102
RTVSPropertyOp57
 70
     0
102
RTVSPost2010Prop28
280
     0
102
RTVSPost2010PropOp28
 70
     0
102
RTVSPost2010Prop29
280
     1
102
RTVSPost2010PropOp29
 70
     0
102
RTVSPost2010Prop30
280
     1
102
RTVSPost2010PropOp30
 70
     0
102
RTVSPost2010Prop31
280
     0
102
RTVSPost2010PropOp31
 70
     0
102
RTVSPost2010Prop32
280
     0
102
RTVSPost2010PropOp32
 70
     0
102
RTVSPost2010Prop33
280
     0
102
RTVSPost2010PropOp33
 70
     0
102
RTVSPost2010Prop34
280
     0
102
RTVSPost2010PropOp34
 70
     0
102
RTVSPost2010Prop35
280
     0
102
RTVSPost2010PropOp35
 70
     0
102
RTVSPost2010Prop36
280
     0
102
RTVSPost2010PropOp36
 70
     0
102
RTVSPost2010Prop37
 90
       50
102
RTVSPost2010PropOp37
 70
     0
102
RTVSPost2010Prop38
140
0.0
102
RTVSPost2010PropOp38
 70
     0
102
RTVSPost2010Prop39
140
1.0
102
RTVSPost2010PropOp39
 70
     0
102
RTVSPost2010Prop40
 90
        0
102
RTVSPost2010PropOp40
 70
     0
102
RTVSPost2010Prop41ColorIndex
 90
       18
102
RTVSPost2010Prop41ColorRGB
 90
        0
102
RTVSPost2010PropOp41
 70
     0
102
RTVSPost2010Prop42
 90
       50
102
RTVSPost2010PropOp42
 70
     0
102
RTVSPost2010Prop43
 90
        3
102
RTVSPost2010PropOp43
 70
     0
102
RTVSPost2010Prop44ColorIndex
 90
        5
102
RTVSPost2010Prop44ColorRGB
 90
      255
102
RTVSPost2010PropOp44
 70
     0
102
RTVSPost2010Prop45
280
     0
102
RTVSPost2010PropOp45
 70
     0
102
RTVSPost2010Prop46
 90
       50
102
RTVSPost2010PropOp46
 70
     0
102
RTVSPost2010Prop47
 90
       50
102
RTVSPost2010PropOp47
 70
     0
102
RTVSPost2010Prop48
 90
       50
102
RTVSPost2010PropOp48
 70
     0
102
RTVSPost2010Prop49
280
     0
102
RTVSPost2010PropOp49
 70
     0
102
RTVSPost2010Prop50
 90
       50
102
RTVSPost2010PropOp50
 70
     0
102
RTVSPost2010Prop51ColorIndex
 90
      256
102
RTVSPost2010Prop51ColorRGB
 90
-16777216
102
RTVSPost2010PropOp51
 70
     0
102
RTVSPost2010Prop52
140
1.0
102
RTVSPost2010PropOp52
 70
     0
102
RTVSPost2010Prop53
 90
        2
102
RTVSPost2010PropOp53
 70
     0
102
RTVSPost2010Prop54
  1
strokes_ogs.tif
102
RTVSPost2010PropOp54
 70
     0
102
RTVSPost2010Prop55
280
     0
102
RTVSPost2010PropOp55
 70
     0
102
RTVSPost2010Prop56
140
1.0
102
RTVSPost2010PropOp56
 70
     0
102
RTVSPost2010Prop57
140
1.0
102
RTVSPost2010PropOp57
 70
     0
  0
XRECORD
  5
313
102
{ACAD_REACTORS
330
312
102
}
330
312
100
AcDbXrecord
280
     1
102
RTVSPropertyOp0
 70
     1
102
RTVSPropertyOp1
 70
     1
102
RTVSPropertyOp2
 70
     1
102
RTVSPropertyOp3
 70
     1
102
RTVSPropertyOp4
 70
     1
102
RTVSPropertyOp5
 70
     1
102
RTVSPropertyOp6
 70
     1
102
RTVSPropertyOp7
 70
     1
102
RTVSPropertyOp8
 70
     1
102
RTVSPropertyOp9
 70
     1
102
RTVSPropertyOp10
 70
     1
102
RTVSPropertyOp11
 70
     1
102
RTVSPropertyOp12
 70
     1
102
RTVSPropertyOp13
 70
     1
102
RTVSPropertyOp14
 70
     1
102
RTVSPropertyOp15
 70
     1
102
RTVSPropertyOp16
 70
     1
102
RTVSPropertyOp17
 70
     1
102
RTVSPropertyOp18
 70
     1
102
RTVSPropertyOp19
 70
     1
102
RTVSPropertyOp20
 70
     1
102
RTVSPropertyOp21
 70
     1
102
RTVSPropertyOp22
 70
     1
102
RTVSPropertyOp23
 70
     1
102
RTVSPropertyOp24
 70
     1
102
RTVSPropertyOp25
 70
     1
102
RTVSPropertyOp26
 70
     1
102
RTVSPropertyOp27
 70
     1
102
RTVSPropertyOp28
 70
     1
102
RTVSPropertyOp29
 70
     1
102
RTVSPropertyOp30
 70
     1
102
RTVSPropertyOp31
 70
     1
102
RTVSPropertyOp32
 70
     1
102
RTVSPropertyOp33
 70
     1
102
RTVSPropertyOp34
 70
     1
102
RTVSPropertyOp35
 70
     1
102
RTVSPropertyOp36
 70
     1
102
RTVSPropertyOp37
 70
     1
102
RTVSPropertyOp38
 70
     1
102
RTVSPropertyOp39
 70
     1
102
RTVSPropertyOp40
 70
     1
102
RTVSPropertyOp41
 70
     1
102
RTVSPropertyOp42
 70
     1
102
RTVSPropertyOp43
 70
     1
102
RTVSPropertyOp44
 70
     1
102
RTVSPropertyOp45
 70
     1
102
RTVSPropertyOp46
 70
     1
102
RTVSPropertyOp47
 70
     1
102
RTVSPropertyOp48
 70
     1
102
RTVSPropertyOp49
 70
     1
102
RTVSPropertyOp50
 70
     1
102
RTVSPropertyOp51
 70
     0
102
RTVSPropertyOp52
 70
     0
102
RTVSPropertyOp53
 70
     1
102
RTVSPropertyOp54
 70
     1
102
RTVSPropertyOp55
 70
     1
102
RTVSPropertyOp56
 70
     1
102
RTVSPropertyOp57
 70
     1
102
RTVSPost2010Prop28
280
     0
102
RTVSPost2010PropOp28
 70
     1
102
RTVSPost2010Prop29
280
     1
102
RTVSPost2010PropOp29
 70
     1
102
RTVSPost2010Prop30
280
     1
102
RTVSPost2010PropOp30
 70
     1
102
RTVSPost2010Prop31
280
     0
102
RTVSPost2010PropOp31
 70
     1
102
RTVSPost2010Prop32
280
     0
102
RTVSPost2010PropOp32
 70
     1
102
RTVSPost2010Prop33
280
     0
102
RTVSPost2010PropOp33
 70
     1
102
RTVSPost2010Prop34
280
     0
102
RTVSPost2010PropOp34
 70
     1
102
RTVSPost2010Prop35
280
     0
102
RTVSPost2010PropOp35
 70
     1
102
RTVSPost2010Prop36
280
     0
102
RTVSPost2010PropOp36
 70
     1
102
RTVSPost2010Prop37
 90
       50
102
RTVSPost2010PropOp37
 70
     1
102
RTVSPost2010Prop38
140
0.0
102
RTVSPost2010PropOp38
 70
     1
102
RTVSPost2010Prop39
140
1.0
102
RTVSPost2010PropOp39
 70
     1
102
RTVSPost2010Prop40
 90
        0
102
RTVSPost2010PropOp40
 70
     1
102
RTVSPost2010Prop41ColorIndex
 90
       18
102
RTVSPost2010Prop41ColorRGB
 90
        0
102
RTVSPost2010PropOp41
 70
     1
102
RTVSPost2010Prop42
 90
       50
102
RTVSPost2010PropOp42
 70
     1
102
RTVSPost2010Prop43
 90
        3
102
RTVSPost2010PropOp43
 70
     1
102
RTVSPost2010Prop44ColorIndex
 90
        5
102
RTVSPost2010Prop44ColorRGB
 90
      255
102
RTVSPost2010PropOp44
 70
     1
102
RTVSPost2010Prop45
280
     0
102
RTVSPost2010PropOp45
 70
     1
102
RTVSPost2010Prop46
 90
       50
102
RTVSPost2010PropOp46
 70
     1
102
RTVSPost2010Prop47
 90
       50
102
RTVSPost2010PropOp47
 70
     1
102
RTVSPost2010Prop48
 90
       50
102
RTVSPost2010PropOp48
 70
     1
102
RTVSPost2010Prop49
280
     0
102
RTVSPost2010PropOp49
 70
     1
102
RTVSPost2010Prop50
 90
       50
102
RTVSPost2010PropOp50
 70
     1
102
RTVSPost2010Prop51ColorIndex
 90
      256
102
RTVSPost2010Prop51ColorRGB
 90
-16777216
102
RTVSPost2010PropOp51
 70
     0
102
RTVSPost2010Prop52
140
1.0
102
RTVSPost2010PropOp52
 70
     0
102
RTVSPost2010Prop53
 90
        2
102
RTVSPost2010PropOp53
 70
     1
102
RTVSPost2010Prop54
  1
strokes_ogs.tif
102
RTVSPost2010PropOp54
 70
     1
102
RTVSPost2010Prop55
280
     0
102
RTVSPost2010PropOp55
 70
     1
102
RTVSPost2010Prop56
140
1.0
102
RTVSPost2010PropOp56
 70
     1
102
RTVSPost2010Prop57
140
1.0
102
RTVSPost2010PropOp57
 70
     1
  0
XRECORD
  5
2F7
102
{ACAD_REACTORS
330
2F6
102
}
330
2F6
100
AcDbXrecord
280
     1
102
RTVSPropertyOp0
 70
     1
102
RTVSPropertyOp1
 70
     1
102
RTVSPropertyOp2
 70
     1
102
RTVSPropertyOp3
 70
     1
102
RTVSPropertyOp4
 70
     1
102
RTVSPropertyOp5
 70
     1
102
RTVSPropertyOp6
 70
     1
102
RTVSPropertyOp7
 70
     1
102
RTVSPropertyOp8
 70
     1
102
RTVSPropertyOp9
 70
     1
102
RTVSPropertyOp10
 70
     1
102
RTVSPropertyOp11
 70
     1
102
RTVSPropertyOp12
 70
     1
102
RTVSPropertyOp13
 70
     1
102
RTVSPropertyOp14
 70
     1
102
RTVSPropertyOp15
 70
     1
102
RTVSPropertyOp16
 70
     1
102
RTVSPropertyOp17
 70
     1
102
RTVSPropertyOp18
 70
     1
102
RTVSPropertyOp19
 70
     1
102
RTVSPropertyOp20
 70
     1
102
RTVSPropertyOp21
 70
     1
102
RTVSPropertyOp22
 70
     1
102
RTVSPropertyOp23
 70
     1
102
RTVSPropertyOp24
 70
     1
102
RTVSPropertyOp25
 70
     1
102
RTVSPropertyOp26
 70
     1
102
RTVSPropertyOp27
 70
     1
102
RTVSPropertyOp28
 70
     1
102
RTVSPropertyOp29
 70
     1
102
RTVSPropertyOp30
 70
     1
102
RTVSPropertyOp31
 70
     1
102
RTVSPropertyOp32
 70
     1
102
RTVSPropertyOp33
 70
     1
102
RTVSPropertyOp34
 70
     1
102
RTVSPropertyOp35
 70
     1
102
RTVSPropertyOp36
 70
     1
102
RTVSPropertyOp37
 70
     1
102
RTVSPropertyOp38
 70
     1
102
RTVSPropertyOp39
 70
     1
102
RTVSPropertyOp40
 70
     1
102
RTVSPropertyOp41
 70
     1
102
RTVSPropertyOp42
 70
     1
102
RTVSPropertyOp43
 70
     1
102
RTVSPropertyOp44
 70
     1
102
RTVSPropertyOp45
 70
     1
102
RTVSPropertyOp46
 70
     1
102
RTVSPropertyOp47
 70
     1
102
RTVSPropertyOp48
 70
     1
102
RTVSPropertyOp49
 70
     1
102
RTVSPropertyOp50
 70
     1
102
RTVSPropertyOp51
 70
     0
102
RTVSPropertyOp52
 70
     0
102
RTVSPropertyOp53
 70
     1
102
RTVSPropertyOp54
 70
     1
102
RTVSPropertyOp55
 70
     1
102
RTVSPropertyOp56
 70
     1
102
RTVSPropertyOp57
 70
     1
102
RTVSPost2010Prop28
280
     0
102
RTVSPost2010PropOp28
 70
     1
102
RTVSPost2010Prop29
280
     1
102
RTVSPost2010PropOp29
 70
     1
102
RTVSPost2010Prop30
280
     1
102
RTVSPost2010PropOp30
 70
     1
102
RTVSPost2010Prop31
280
     0
102
RTVSPost2010PropOp31
 70
     1
102
RTVSPost2010Prop32
280
     0
102
RTVSPost2010PropOp32
 70
     1
102
RTVSPost2010Prop33
280
     0
102
RTVSPost2010PropOp33
 70
     1
102
RTVSPost2010Prop34
280
     0
102
RTVSPost2010PropOp34
 70
     1
102
RTVSPost2010Prop35
280
     0
102
RTVSPost2010PropOp35
 70
     1
102
RTVSPost2010Prop36
280
     0
102
RTVSPost2010PropOp36
 70
     1
102
RTVSPost2010Prop37
 90
       50
102
RTVSPost2010PropOp37
 70
     1
102
RTVSPost2010Prop38
140
0.0
102
RTVSPost2010PropOp38
 70
     1
102
RTVSPost2010Prop39
140
1.0
102
RTVSPost2010PropOp39
 70
     1
102
RTVSPost2010Prop40
 90
        0
102
RTVSPost2010PropOp40
 70
     1
102
RTVSPost2010Prop41ColorIndex
 90
       18
102
RTVSPost2010Prop41ColorRGB
 90
        0
102
RTVSPost2010PropOp41
 70
     1
102
RTVSPost2010Prop42
 90
       50
102
RTVSPost2010PropOp42
 70
     1
102
RTVSPost2010Prop43
 90
        3
102
RTVSPost2010PropOp43
 70
     1
102
RTVSPost2010Prop44ColorIndex
 90
        5
102
RTVSPost2010Prop44ColorRGB
 90
      255
102
RTVSPost2010PropOp44
 70
     1
102
RTVSPost2010Prop45
280
     0
102
RTVSPost2010PropOp45
 70
     1
102
RTVSPost2010Prop46
 90
       50
102
RTVSPost2010PropOp46
 70
     1
102
RTVSPost2010Prop47
 90
       50
102
RTVSPost2010PropOp47
 70
     1
102
RTVSPost2010Prop48
 90
       50
102
RTVSPost2010PropOp48
 70
     1
102
RTVSPost2010Prop49
280
     0
102
RTVSPost2010PropOp49
 70
     1
102
RTVSPost2010Prop50
 90
       50
102
RTVSPost2010PropOp50
 70
     1
102
RTVSPost2010Prop51ColorIndex
 90
      256
102
RTVSPost2010Prop51ColorRGB
 90
-16777216
102
RTVSPost2010PropOp51
 70
     0
102
RTVSPost2010Prop52
140
1.0
102
RTVSPost2010PropOp52
 70
     0
102
RTVSPost2010Prop53
 90
        2
102
RTVSPost2010PropOp53
 70
     1
102
RTVSPost2010Prop54
  1
strokes_ogs.tif
102
RTVSPost2010PropOp54
 70
     1
102
RTVSPost2010Prop55
280
     0
102
RTVSPost2010PropOp55
 70
     1
102
RTVSPost2010Prop56
140
1.0
102
RTVSPost2010PropOp56
 70
     1
102
RTVSPost2010Prop57
140
1.0
102
RTVSPost2010PropOp57
 70
     1
  0
XRECORD
  5
2F9
102
{ACAD_REACTORS
330
2F8
102
}
330
2F8
100
AcDbXrecord
280
     1
102
RTVSPropertyOp0
 70
     1
102
RTVSPropertyOp1
 70
     1
102
RTVSPropertyOp2
 70
     1
102
RTVSPropertyOp3
 70
     1
102
RTVSPropertyOp4
 70
     1
102
RTVSPropertyOp5
 70
     1
102
RTVSPropertyOp6
 70
     1
102
RTVSPropertyOp7
 70
     1
102
RTVSPropertyOp8
 70
     1
102
RTVSPropertyOp9
 70
     1
102
RTVSPropertyOp10
 70
     1
102
RTVSPropertyOp11
 70
     1
102
RTVSPropertyOp12
 70
     1
102
RTVSPropertyOp13
 70
     1
102
RTVSPropertyOp14
 70
     1
102
RTVSPropertyOp15
 70
     1
102
RTVSPropertyOp16
 70
     1
102
RTVSPropertyOp17
 70
     1
102
RTVSPropertyOp18
 70
     1
102
RTVSPropertyOp19
 70
     1
102
RTVSPropertyOp20
 70
     1
102
RTVSPropertyOp21
 70
     1
102
RTVSPropertyOp22
 70
     1
102
RTVSPropertyOp23
 70
     1
102
RTVSPropertyOp24
 70
     1
102
RTVSPropertyOp25
 70
     1
102
RTVSPropertyOp26
 70
     1
102
RTVSPropertyOp27
 70
     1
102
RTVSPropertyOp28
 70
     1
102
RTVSPropertyOp29
 70
     1
102
RTVSPropertyOp30
 70
     1
102
RTVSPropertyOp31
 70
     1
102
RTVSPropertyOp32
 70
     1
102
RTVSPropertyOp33
 70
     1
102
RTVSPropertyOp34
 70
     1
102
RTVSPropertyOp35
 70
     1
102
RTVSPropertyOp36
 70
     1
102
RTVSPropertyOp37
 70
     1
102
RTVSPropertyOp38
 70
     1
102
RTVSPropertyOp39
 70
     1
102
RTVSPropertyOp40
 70
     1
102
RTVSPropertyOp41
 70
     1
102
RTVSPropertyOp42
 70
     1
102
RTVSPropertyOp43
 70
     1
102
RTVSPropertyOp44
 70
     1
102
RTVSPropertyOp45
 70
     1
102
RTVSPropertyOp46
 70
     1
102
RTVSPropertyOp47
 70
     1
102
RTVSPropertyOp48
 70
     1
102
RTVSPropertyOp49
 70
     1
102
RTVSPropertyOp50
 70
     1
102
RTVSPropertyOp51
 70
     0
102
RTVSPropertyOp52
 70
     0
102
RTVSPropertyOp53
 70
     1
102
RTVSPropertyOp54
 70
     1
102
RTVSPropertyOp55
 70
     1
102
RTVSPropertyOp56
 70
     1
102
RTVSPropertyOp57
 70
     1
102
RTVSPost2010Prop28
280
     0
102
RTVSPost2010PropOp28
 70
     1
102
RTVSPost2010Prop29
280
     1
102
RTVSPost2010PropOp29
 70
     1
102
RTVSPost2010Prop30
280
     1
102
RTVSPost2010PropOp30
 70
     1
102
RTVSPost2010Prop31
280
     0
102
RTVSPost2010PropOp31
 70
     1
102
RTVSPost2010Prop32
280
     0
102
RTVSPost2010PropOp32
 70
     1
102
RTVSPost2010Prop33
280
     0
102
RTVSPost2010PropOp33
 70
     1
102
RTVSPost2010Prop34
280
     0
102
RTVSPost2010PropOp34
 70
     1
102
RTVSPost2010Prop35
280
     0
102
RTVSPost2010PropOp35
 70
     1
102
RTVSPost2010Prop36
280
     0
102
RTVSPost2010PropOp36
 70
     1
102
RTVSPost2010Prop37
 90
       50
102
RTVSPost2010PropOp37
 70
     1
102
RTVSPost2010Prop38
140
0.0
102
RTVSPost2010PropOp38
 70
     1
102
RTVSPost2010Prop39
140
1.0
102
RTVSPost2010PropOp39
 70
     1
102
RTVSPost2010Prop40
 90
        0
102
RTVSPost2010PropOp40
 70
     1
102
RTVSPost2010Prop41ColorIndex
 90
       18
102
RTVSPost2010Prop41ColorRGB
 90
        0
102
RTVSPost2010PropOp41
 70
     1
102
RTVSPost2010Prop42
 90
       50
102
RTVSPost2010PropOp42
 70
     1
102
RTVSPost2010Prop43
 90
        3
102
RTVSPost2010PropOp43
 70
     1
102
RTVSPost2010Prop44ColorIndex
 90
        5
102
RTVSPost2010Prop44ColorRGB
 90
      255
102
RTVSPost2010PropOp44
 70
     1
102
RTVSPost2010Prop45
280
     0
102
RTVSPost2010PropOp45
 70
     1
102
RTVSPost2010Prop46
 90
       50
102
RTVSPost2010PropOp46
 70
     1
102
RTVSPost2010Prop47
 90
       50
102
RTVSPost2010PropOp47
 70
     1
102
RTVSPost2010Prop48
 90
       50
102
RTVSPost2010PropOp48
 70
     1
102
RTVSPost2010Prop49
280
     0
102
RTVSPost2010PropOp49
 70
     1
102
RTVSPost2010Prop50
 90
       50
102
RTVSPost2010PropOp50
 70
     1
102
RTVSPost2010Prop51ColorIndex
 90
      256
102
RTVSPost2010Prop51ColorRGB
 90
-16777216
102
RTVSPost2010PropOp51
 70
     0
102
RTVSPost2010Prop52
140
1.0
102
RTVSPost2010PropOp52
 70
     0
102
RTVSPost2010Prop53
 90
        2
102
RTVSPost2010PropOp53
 70
     1
102
RTVSPost2010Prop54
  1
strokes_ogs.tif
102
RTVSPost2010PropOp54
 70
     1
102
RTVSPost2010Prop55
280
     0
102
RTVSPost2010PropOp55
 70
     1
102
RTVSPost2010Prop56
140
1.0
102
RTVSPost2010PropOp56
 70
     1
102
RTVSPost2010Prop57
140
1.0
102
RTVSPost2010PropOp57
 70
     1
  0
XRECORD
  5
2FB
102
{ACAD_REACTORS
330
2FA
102
}
330
2FA
100
AcDbXrecord
280
     1
102
RTVSPropertyOp0
 70
     1
102
RTVSPropertyOp1
 70
     1
102
RTVSPropertyOp2
 70
     1
102
RTVSPropertyOp3
 70
     1
102
RTVSPropertyOp4
 70
     1
102
RTVSPropertyOp5
 70
     1
102
RTVSPropertyOp6
 70
     1
102
RTVSPropertyOp7
 70
     1
102
RTVSPropertyOp8
 70
     1
102
RTVSPropertyOp9
 70
     1
102
RTVSPropertyOp10
 70
     1
102
RTVSPropertyOp11
 70
     1
102
RTVSPropertyOp12
 70
     1
102
RTVSPropertyOp13
 70
     1
102
RTVSPropertyOp14
 70
     1
102
RTVSPropertyOp15
 70
     1
102
RTVSPropertyOp16
 70
     1
102
RTVSPropertyOp17
 70
     1
102
RTVSPropertyOp18
 70
     1
102
RTVSPropertyOp19
 70
     1
102
RTVSPropertyOp20
 70
     1
102
RTVSPropertyOp21
 70
     1
102
RTVSPropertyOp22
 70
     1
102
RTVSPropertyOp23
 70
     1
102
RTVSPropertyOp24
 70
     1
102
RTVSPropertyOp25
 70
     1
102
RTVSPropertyOp26
 70
     1
102
RTVSPropertyOp27
 70
     1
102
RTVSPropertyOp28
 70
     1
102
RTVSPropertyOp29
 70
     1
102
RTVSPropertyOp30
 70
     1
102
RTVSPropertyOp31
 70
     1
102
RTVSPropertyOp32
 70
     1
102
RTVSPropertyOp33
 70
     1
102
RTVSPropertyOp34
 70
     1
102
RTVSPropertyOp35
 70
     1
102
RTVSPropertyOp36
 70
     1
102
RTVSPropertyOp37
 70
     1
102
RTVSPropertyOp38
 70
     1
102
RTVSPropertyOp39
 70
     1
102
RTVSPropertyOp40
 70
     1
102
RTVSPropertyOp41
 70
     1
102
RTVSPropertyOp42
 70
     1
102
RTVSPropertyOp43
 70
     1
102
RTVSPropertyOp44
 70
     1
102
RTVSPropertyOp45
 70
     1
102
RTVSPropertyOp46
 70
     1
102
RTVSPropertyOp47
 70
     1
102
RTVSPropertyOp48
 70
     1
102
RTVSPropertyOp49
 70
     1
102
RTVSPropertyOp50
 70
     1
102
RTVSPropertyOp51
 70
     0
102
RTVSPropertyOp52
 70
     0
102
RTVSPropertyOp53
 70
     1
102
RTVSPropertyOp54
 70
     1
102
RTVSPropertyOp55
 70
     1
102
RTVSPropertyOp56
 70
     1
102
RTVSPropertyOp57
 70
     1
102
RTVSPost2010Prop28
280
     0
102
RTVSPost2010PropOp28
 70
     1
102
RTVSPost2010Prop29
280
     1
102
RTVSPost2010PropOp29
 70
     1
102
RTVSPost2010Prop30
280
     1
102
RTVSPost2010PropOp30
 70
     1
102
RTVSPost2010Prop31
280
     0
102
RTVSPost2010PropOp31
 70
     1
102
RTVSPost2010Prop32
280
     0
102
RTVSPost2010PropOp32
 70
     1
102
RTVSPost2010Prop33
280
     0
102
RTVSPost2010PropOp33
 70
     1
102
RTVSPost2010Prop34
280
     0
102
RTVSPost2010PropOp34
 70
     1
102
RTVSPost2010Prop35
280
     0
102
RTVSPost2010PropOp35
 70
     1
102
RTVSPost2010Prop36
280
     0
102
RTVSPost2010PropOp36
 70
     1
102
RTVSPost2010Prop37
 90
       50
102
RTVSPost2010PropOp37
 70
     1
102
RTVSPost2010Prop38
140
0.0
102
RTVSPost2010PropOp38
 70
     1
102
RTVSPost2010Prop39
140
1.0
102
RTVSPost2010PropOp39
 70
     1
102
RTVSPost2010Prop40
 90
        0
102
RTVSPost2010PropOp40
 70
     1
102
RTVSPost2010Prop41ColorIndex
 90
       18
102
RTVSPost2010Prop41ColorRGB
 90
        0
102
RTVSPost2010PropOp41
 70
     1
102
RTVSPost2010Prop42
 90
       50
102
RTVSPost2010PropOp42
 70
     1
102
RTVSPost2010Prop43
 90
        3
102
RTVSPost2010PropOp43
 70
     1
102
RTVSPost2010Prop44ColorIndex
 90
        5
102
RTVSPost2010Prop44ColorRGB
 90
      255
102
RTVSPost2010PropOp44
 70
     1
102
RTVSPost2010Prop45
280
     0
102
RTVSPost2010PropOp45
 70
     1
102
RTVSPost2010Prop46
 90
       50
102
RTVSPost2010PropOp46
 70
     1
102
RTVSPost2010Prop47
 90
       50
102
RTVSPost2010PropOp47
 70
     1
102
RTVSPost2010Prop48
 90
       50
102
RTVSPost2010PropOp48
 70
     1
102
RTVSPost2010Prop49
280
     0
102
RTVSPost2010PropOp49
 70
     1
102
RTVSPost2010Prop50
 90
       50
102
RTVSPost2010PropOp50
 70
     1
102
RTVSPost2010Prop51ColorIndex
 90
      256
102
RTVSPost2010Prop51ColorRGB
 90
-16777216
102
RTVSPost2010PropOp51
 70
     0
102
RTVSPost2010Prop52
140
1.0
102
RTVSPost2010PropOp52
 70
     0
102
RTVSPost2010Prop53
 90
        2
102
RTVSPost2010PropOp53
 70
     1
102
RTVSPost2010Prop54
  1
strokes_ogs.tif
102
RTVSPost2010PropOp54
 70
     1
102
RTVSPost2010Prop55
280
     0
102
RTVSPost2010PropOp55
 70
     1
102
RTVSPost2010Prop56
140
1.0
102
RTVSPost2010PropOp56
 70
     1
102
RTVSPost2010Prop57
140
1.0
102
RTVSPost2010PropOp57
 70
     1
  0
XRECORD
  5
2FD
102
{ACAD_REACTORS
330
2FC
102
}
330
2FC
100
AcDbXrecord
280
     1
102
RTVSPropertyOp0
 70
     1
102
RTVSPropertyOp1
 70
     1
102
RTVSPropertyOp2
 70
     1
102
RTVSPropertyOp3
 70
     1
102
RTVSPropertyOp4
 70
     1
102
RTVSPropertyOp5
 70
     1
102
RTVSPropertyOp6
 70
     1
102
RTVSPropertyOp7
 70
     1
102
RTVSPropertyOp8
 70
     1
102
RTVSPropertyOp9
 70
     1
102
RTVSPropertyOp10
 70
     1
102
RTVSPropertyOp11
 70
     1
102
RTVSPropertyOp12
 70
     1
102
RTVSPropertyOp13
 70
     1
102
RTVSPropertyOp14
 70
     1
102
RTVSPropertyOp15
 70
     1
102
RTVSPropertyOp16
 70
     1
102
RTVSPropertyOp17
 70
     1
102
RTVSPropertyOp18
 70
     1
102
RTVSPropertyOp19
 70
     1
102
RTVSPropertyOp20
 70
     1
102
RTVSPropertyOp21
 70
     1
102
RTVSPropertyOp22
 70
     1
102
RTVSPropertyOp23
 70
     1
102
RTVSPropertyOp24
 70
     1
102
RTVSPropertyOp25
 70
     1
102
RTVSPropertyOp26
 70
     1
102
RTVSPropertyOp27
 70
     1
102
RTVSPropertyOp28
 70
     1
102
RTVSPropertyOp29
 70
     1
102
RTVSPropertyOp30
 70
     1
102
RTVSPropertyOp31
 70
     1
102
RTVSPropertyOp32
 70
     1
102
RTVSPropertyOp33
 70
     1
102
RTVSPropertyOp34
 70
     1
102
RTVSPropertyOp35
 70
     1
102
RTVSPropertyOp36
 70
     1
102
RTVSPropertyOp37
 70
     1
102
RTVSPropertyOp38
 70
     1
102
RTVSPropertyOp39
 70
     1
102
RTVSPropertyOp40
 70
     1
102
RTVSPropertyOp41
 70
     1
102
RTVSPropertyOp42
 70
     1
102
RTVSPropertyOp43
 70
     1
102
RTVSPropertyOp44
 70
     1
102
RTVSPropertyOp45
 70
     1
102
RTVSPropertyOp46
 70
     1
102
RTVSPropertyOp47
 70
     1
102
RTVSPropertyOp48
 70
     1
102
RTVSPropertyOp49
 70
     1
102
RTVSPropertyOp50
 70
     1
102
RTVSPropertyOp51
 70
     0
102
RTVSPropertyOp52
 70
     0
102
RTVSPropertyOp53
 70
     1
102
RTVSPropertyOp54
 70
     1
102
RTVSPropertyOp55
 70
     1
102
RTVSPropertyOp56
 70
     1
102
RTVSPropertyOp57
 70
     1
102
RTVSPost2010Prop28
280
     0
102
RTVSPost2010PropOp28
 70
     1
102
RTVSPost2010Prop29
280
     1
102
RTVSPost2010PropOp29
 70
     1
102
RTVSPost2010Prop30
280
     1
102
RTVSPost2010PropOp30
 70
     1
102
RTVSPost2010Prop31
280
     0
102
RTVSPost2010PropOp31
 70
     1
102
RTVSPost2010Prop32
280
     0
102
RTVSPost2010PropOp32
 70
     1
102
RTVSPost2010Prop33
280
     0
102
RTVSPost2010PropOp33
 70
     1
102
RTVSPost2010Prop34
280
     0
102
RTVSPost2010PropOp34
 70
     1
102
RTVSPost2010Prop35
280
     0
102
RTVSPost2010PropOp35
 70
     1
102
RTVSPost2010Prop36
280
     0
102
RTVSPost2010PropOp36
 70
     1
102
RTVSPost2010Prop37
 90
       50
102
RTVSPost2010PropOp37
 70
     1
102
RTVSPost2010Prop38
140
0.0
102
RTVSPost2010PropOp38
 70
     1
102
RTVSPost2010Prop39
140
1.0
102
RTVSPost2010PropOp39
 70
     1
102
RTVSPost2010Prop40
 90
        0
102
RTVSPost2010PropOp40
 70
     1
102
RTVSPost2010Prop41ColorIndex
 90
       18
102
RTVSPost2010Prop41ColorRGB
 90
        0
102
RTVSPost2010PropOp41
 70
     1
102
RTVSPost2010Prop42
 90
       50
102
RTVSPost2010PropOp42
 70
     1
102
RTVSPost2010Prop43
 90
        3
102
RTVSPost2010PropOp43
 70
     1
102
RTVSPost2010Prop44ColorIndex
 90
        5
102
RTVSPost2010Prop44ColorRGB
 90
      255
102
RTVSPost2010PropOp44
 70
     1
102
RTVSPost2010Prop45
280
     0
102
RTVSPost2010PropOp45
 70
     1
102
RTVSPost2010Prop46
 90
       50
102
RTVSPost2010PropOp46
 70
     1
102
RTVSPost2010Prop47
 90
       50
102
RTVSPost2010PropOp47
 70
     1
102
RTVSPost2010Prop48
 90
       50
102
RTVSPost2010PropOp48
 70
     1
102
RTVSPost2010Prop49
280
     0
102
RTVSPost2010PropOp49
 70
     1
102
RTVSPost2010Prop50
 90
       50
102
RTVSPost2010PropOp50
 70
     1
102
RTVSPost2010Prop51ColorIndex
 90
      256
102
RTVSPost2010Prop51ColorRGB
 90
-16777216
102
RTVSPost2010PropOp51
 70
     0
102
RTVSPost2010Prop52
140
1.0
102
RTVSPost2010PropOp52
 70
     0
102
RTVSPost2010Prop53
 90
        2
102
RTVSPost2010PropOp53
 70
     1
102
RTVSPost2010Prop54
  1
strokes_ogs.tif
102
RTVSPost2010PropOp54
 70
     1
102
RTVSPost2010Prop55
280
     0
102
RTVSPost2010PropOp55
 70
     1
102
RTVSPost2010Prop56
140
1.0
102
RTVSPost2010PropOp56
 70
     1
102
RTVSPost2010Prop57
140
1.0
102
RTVSPost2010PropOp57
 70
     1
  0
XRECORD
  5
303
102
{ACAD_REACTORS
330
302
102
}
330
302
100
AcDbXrecord
280
     1
102
RTVSPropertyOp0
 70
     1
102
RTVSPropertyOp1
 70
     1
102
RTVSPropertyOp2
 70
     1
102
RTVSPropertyOp3
 70
     1
102
RTVSPropertyOp4
 70
     1
102
RTVSPropertyOp5
 70
     1
102
RTVSPropertyOp6
 70
     1
102
RTVSPropertyOp7
 70
     1
102
RTVSPropertyOp8
 70
     1
102
RTVSPropertyOp9
 70
     1
102
RTVSPropertyOp10
 70
     1
102
RTVSPropertyOp11
 70
     1
102
RTVSPropertyOp12
 70
     1
102
RTVSPropertyOp13
 70
     1
102
RTVSPropertyOp14
 70
     1
102
RTVSPropertyOp15
 70
     1
102
RTVSPropertyOp16
 70
     1
102
RTVSPropertyOp17
 70
     1
102
RTVSPropertyOp18
 70
     1
102
RTVSPropertyOp19
 70
     1
102
RTVSPropertyOp20
 70
     1
102
RTVSPropertyOp21
 70
     1
102
RTVSPropertyOp22
 70
     1
102
RTVSPropertyOp23
 70
     1
102
RTVSPropertyOp24
 70
     1
102
RTVSPropertyOp25
 70
     1
102
RTVSPropertyOp26
 70
     1
102
RTVSPropertyOp27
 70
     1
102
RTVSPropertyOp28
 70
     1
102
RTVSPropertyOp29
 70
     1
102
RTVSPropertyOp30
 70
     1
102
RTVSPropertyOp31
 70
     1
102
RTVSPropertyOp32
 70
     1
102
RTVSPropertyOp33
 70
     1
102
RTVSPropertyOp34
 70
     1
102
RTVSPropertyOp35
 70
     1
102
RTVSPropertyOp36
 70
     1
102
RTVSPropertyOp37
 70
     1
102
RTVSPropertyOp38
 70
     1
102
RTVSPropertyOp39
 70
     1
102
RTVSPropertyOp40
 70
     1
102
RTVSPropertyOp41
 70
     1
102
RTVSPropertyOp42
 70
     1
102
RTVSPropertyOp43
 70
     1
102
RTVSPropertyOp44
 70
     1
102
RTVSPropertyOp45
 70
     1
102
RTVSPropertyOp46
 70
     1
102
RTVSPropertyOp47
 70
     1
102
RTVSPropertyOp48
 70
     1
102
RTVSPropertyOp49
 70
     1
102
RTVSPropertyOp50
 70
     1
102
RTVSPropertyOp51
 70
     0
102
RTVSPropertyOp52
 70
     0
102
RTVSPropertyOp53
 70
     1
102
RTVSPropertyOp54
 70
     1
102
RTVSPropertyOp55
 70
     1
102
RTVSPropertyOp56
 70
     1
102
RTVSPropertyOp57
 70
     1
102
RTVSPost2010Prop28
280
     0
102
RTVSPost2010PropOp28
 70
     1
102
RTVSPost2010Prop29
280
     1
102
RTVSPost2010PropOp29
 70
     1
102
RTVSPost2010Prop30
280
     1
102
RTVSPost2010PropOp30
 70
     1
102
RTVSPost2010Prop31
280
     0
102
RTVSPost2010PropOp31
 70
     1
102
RTVSPost2010Prop32
280
     0
102
RTVSPost2010PropOp32
 70
     1
102
RTVSPost2010Prop33
280
     0
102
RTVSPost2010PropOp33
 70
     1
102
RTVSPost2010Prop34
280
     0
102
RTVSPost2010PropOp34
 70
     1
102
RTVSPost2010Prop35
280
     0
102
RTVSPost2010PropOp35
 70
     1
102
RTVSPost2010Prop36
280
     0
102
RTVSPost2010PropOp36
 70
     1
102
RTVSPost2010Prop37
 90
       50
102
RTVSPost2010PropOp37
 70
     1
102
RTVSPost2010Prop38
140
0.0
102
RTVSPost2010PropOp38
 70
     1
102
RTVSPost2010Prop39
140
1.0
102
RTVSPost2010PropOp39
 70
     1
102
RTVSPost2010Prop40
 90
        0
102
RTVSPost2010PropOp40
 70
     1
102
RTVSPost2010Prop41ColorIndex
 90
       18
102
RTVSPost2010Prop41ColorRGB
 90
        0
102
RTVSPost2010PropOp41
 70
     1
102
RTVSPost2010Prop42
 90
       50
102
RTVSPost2010PropOp42
 70
     1
102
RTVSPost2010Prop43
 90
        3
102
RTVSPost2010PropOp43
 70
     1
102
RTVSPost2010Prop44ColorIndex
 90
        5
102
RTVSPost2010Prop44ColorRGB
 90
      255
102
RTVSPost2010PropOp44
 70
     1
102
RTVSPost2010Prop45
280
     0
102
RTVSPost2010PropOp45
 70
     1
102
RTVSPost2010Prop46
 90
       50
102
RTVSPost2010PropOp46
 70
     1
102
RTVSPost2010Prop47
 90
       50
102
RTVSPost2010PropOp47
 70
     1
102
RTVSPost2010Prop48
 90
       50
102
RTVSPost2010PropOp48
 70
     1
102
RTVSPost2010Prop49
280
     0
102
RTVSPost2010PropOp49
 70
     1
102
RTVSPost2010Prop50
 90
       50
102
RTVSPost2010PropOp50
 70
     1
102
RTVSPost2010Prop51ColorIndex
 90
      256
102
RTVSPost2010Prop51ColorRGB
 90
-16777216
102
RTVSPost2010PropOp51
 70
     0
102
RTVSPost2010Prop52
140
1.0
102
RTVSPost2010PropOp52
 70
     0
102
RTVSPost2010Prop53
 90
        2
102
RTVSPost2010PropOp53
 70
     1
102
RTVSPost2010Prop54
  1
strokes_ogs.tif
102
RTVSPost2010PropOp54
 70
     1
102
RTVSPost2010Prop55
280
     0
102
RTVSPost2010PropOp55
 70
     1
102
RTVSPost2010Prop56
140
1.0
102
RTVSPost2010PropOp56
 70
     1
102
RTVSPost2010Prop57
140
1.0
102
RTVSPost2010PropOp57
 70
     1
  0
XRECORD
  5
317
102
{ACAD_REACTORS
330
316
102
}
330
316
100
AcDbXrecord
280
     1
102
RTVSPropertyOp0
 70
     0
102
RTVSPropertyOp1
 70
     0
102
RTVSPropertyOp2
 70
     0
102
RTVSPropertyOp3
 70
     0
102
RTVSPropertyOp4
 70
     0
102
RTVSPropertyOp5
 70
     0
102
RTVSPropertyOp6
 70
     0
102
RTVSPropertyOp7
 70
     0
102
RTVSPropertyOp8
 70
     0
102
RTVSPropertyOp9
 70
     0
102
RTVSPropertyOp10
 70
     0
102
RTVSPropertyOp11
 70
     0
102
RTVSPropertyOp12
 70
     0
102
RTVSPropertyOp13
 70
     0
102
RTVSPropertyOp14
 70
     2
102
RTVSPropertyOp15
 70
     0
102
RTVSPropertyOp16
 70
     0
102
RTVSPropertyOp17
 70
     0
102
RTVSPropertyOp18
 70
     0
102
RTVSPropertyOp19
 70
     0
102
RTVSPropertyOp20
 70
     0
102
RTVSPropertyOp21
 70
     0
102
RTVSPropertyOp22
 70
     0
102
RTVSPropertyOp23
 70
     0
102
RTVSPropertyOp24
 70
     0
102
RTVSPropertyOp25
 70
     0
102
RTVSPropertyOp26
 70
     0
102
RTVSPropertyOp27
 70
     0
102
RTVSPropertyOp28
 70
     0
102
RTVSPropertyOp29
 70
     0
102
RTVSPropertyOp30
 70
     0
102
RTVSPropertyOp31
 70
     0
102
RTVSPropertyOp32
 70
     0
102
RTVSPropertyOp33
 70
     0
102
RTVSPropertyOp34
 70
     0
102
RTVSPropertyOp35
 70
     0
102
RTVSPropertyOp36
 70
     0
102
RTVSPropertyOp37
 70
     0
102
RTVSPropertyOp38
 70
     0
102
RTVSPropertyOp39
 70
     0
102
RTVSPropertyOp40
 70
     0
102
RTVSPropertyOp41
 70
     0
102
RTVSPropertyOp42
 70
     0
102
RTVSPropertyOp43
 70
     0
102
RTVSPropertyOp44
 70
     0
102
RTVSPropertyOp45
 70
     0
102
RTVSPropertyOp46
 70
     0
102
RTVSPropertyOp47
 70
     0
102
RTVSPropertyOp48
 70
     0
102
RTVSPropertyOp49
 70
     0
102
RTVSPropertyOp50
 70
     0
102
RTVSPropertyOp51
 70
     0
102
RTVSPropertyOp52
 70
     0
102
RTVSPropertyOp53
 70
     0
102
RTVSPropertyOp54
 70
     0
102
RTVSPropertyOp55
 70
     0
102
RTVSPropertyOp56
 70
     0
102
RTVSPropertyOp57
 70
     0
102
RTVSPost2010Prop28
280
     0
102
RTVSPost2010PropOp28
 70
     0
102
RTVSPost2010Prop29
280
     1
102
RTVSPost2010PropOp29
 70
     0
102
RTVSPost2010Prop30
280
     1
102
RTVSPost2010PropOp30
 70
     0
102
RTVSPost2010Prop31
280
     0
102
RTVSPost2010PropOp31
 70
     0
102
RTVSPost2010Prop32
280
     0
102
RTVSPost2010PropOp32
 70
     0
102
RTVSPost2010Prop33
280
     0
102
RTVSPost2010PropOp33
 70
     0
102
RTVSPost2010Prop34
280
     0
102
RTVSPost2010PropOp34
 70
     0
102
RTVSPost2010Prop35
280
     0
102
RTVSPost2010PropOp35
 70
     0
102
RTVSPost2010Prop36
280
     0
102
RTVSPost2010PropOp36
 70
     0
102
RTVSPost2010Prop37
 90
       50
102
RTVSPost2010PropOp37
 70
     0
102
RTVSPost2010Prop38
140
0.0
102
RTVSPost2010PropOp38
 70
     0
102
RTVSPost2010Prop39
140
1.0
102
RTVSPost2010PropOp39
 70
     0
102
RTVSPost2010Prop40
 90
        0
102
RTVSPost2010PropOp40
 70
     0
102
RTVSPost2010Prop41ColorIndex
 90
       18
102
RTVSPost2010Prop41ColorRGB
 90
        0
102
RTVSPost2010PropOp41
 70
     0
102
RTVSPost2010Prop42
 90
       50
102
RTVSPost2010PropOp42
 70
     0
102
RTVSPost2010Prop43
 90
        3
102
RTVSPost2010PropOp43
 70
     0
102
RTVSPost2010Prop44ColorIndex
 90
        5
102
RTVSPost2010Prop44ColorRGB
 90
      255
102
RTVSPost2010PropOp44
 70
     0
102
RTVSPost2010Prop45
280
     0
102
RTVSPost2010PropOp45
 70
     0
102
RTVSPost2010Prop46
 90
       50
102
RTVSPost2010PropOp46
 70
     0
102
RTVSPost2010Prop47
 90
       50
102
RTVSPost2010PropOp47
 70
     0
102
RTVSPost2010Prop48
 90
       50
102
RTVSPost2010PropOp48
 70
     0
102
RTVSPost2010Prop49
280
     0
102
RTVSPost2010PropOp49
 70
     0
102
RTVSPost2010Prop50
 90
       50
102
RTVSPost2010PropOp50
 70
     0
102
RTVSPost2010Prop51ColorIndex
 90
      256
102
RTVSPost2010Prop51ColorRGB
 90
-16777216
102
RTVSPost2010PropOp51
 70
     0
102
RTVSPost2010Prop52
140
1.0
102
RTVSPost2010PropOp52
 70
     0
102
RTVSPost2010Prop53
 90
        2
102
RTVSPost2010PropOp53
 70
     0
102
RTVSPost2010Prop54
  1
strokes_ogs.tif
102
RTVSPost2010PropOp54
 70
     0
102
RTVSPost2010Prop55
280
     0
102
RTVSPost2010PropOp55
 70
     0
102
RTVSPost2010Prop56
140
1.0
102
RTVSPost2010PropOp56
 70
     0
102
RTVSPost2010Prop57
140
1.0
102
RTVSPost2010PropOp57
 70
     0
  0
XRECORD
  5
311
102
{ACAD_REACTORS
330
310
102
}
330
310
100
AcDbXrecord
280
     1
102
RTVSPropertyOp0
 70
     1
102
RTVSPropertyOp1
 70
     1
102
RTVSPropertyOp2
 70
     1
102
RTVSPropertyOp3
 70
     1
102
RTVSPropertyOp4
 70
     1
102
RTVSPropertyOp5
 70
     1
102
RTVSPropertyOp6
 70
     1
102
RTVSPropertyOp7
 70
     1
102
RTVSPropertyOp8
 70
     1
102
RTVSPropertyOp9
 70
     1
102
RTVSPropertyOp10
 70
     1
102
RTVSPropertyOp11
 70
     1
102
RTVSPropertyOp12
 70
     1
102
RTVSPropertyOp13
 70
     1
102
RTVSPropertyOp14
 70
     1
102
RTVSPropertyOp15
 70
     1
102
RTVSPropertyOp16
 70
     1
102
RTVSPropertyOp17
 70
     1
102
RTVSPropertyOp18
 70
     1
102
RTVSPropertyOp19
 70
     1
102
RTVSPropertyOp20
 70
     1
102
RTVSPropertyOp21
 70
     1
102
RTVSPropertyOp22
 70
     1
102
RTVSPropertyOp23
 70
     1
102
RTVSPropertyOp24
 70
     1
102
RTVSPropertyOp25
 70
     1
102
RTVSPropertyOp26
 70
     1
102
RTVSPropertyOp27
 70
     1
102
RTVSPropertyOp28
 70
     1
102
RTVSPropertyOp29
 70
     1
102
RTVSPropertyOp30
 70
     1
102
RTVSPropertyOp31
 70
     1
102
RTVSPropertyOp32
 70
     1
102
RTVSPropertyOp33
 70
     1
102
RTVSPropertyOp34
 70
     1
102
RTVSPropertyOp35
 70
     1
102
RTVSPropertyOp36
 70
     1
102
RTVSPropertyOp37
 70
     1
102
RTVSPropertyOp38
 70
     1
102
RTVSPropertyOp39
 70
     1
102
RTVSPropertyOp40
 70
     1
102
RTVSPropertyOp41
 70
     1
102
RTVSPropertyOp42
 70
     1
102
RTVSPropertyOp43
 70
     1
102
RTVSPropertyOp44
 70
     1
102
RTVSPropertyOp45
 70
     1
102
RTVSPropertyOp46
 70
     1
102
RTVSPropertyOp47
 70
     1
102
RTVSPropertyOp48
 70
     1
102
RTVSPropertyOp49
 70
     1
102
RTVSPropertyOp50
 70
     1
102
RTVSPropertyOp51
 70
     0
102
RTVSPropertyOp52
 70
     0
102
RTVSPropertyOp53
 70
     1
102
RTVSPropertyOp54
 70
     1
102
RTVSPropertyOp55
 70
     1
102
RTVSPropertyOp56
 70
     1
102
RTVSPropertyOp57
 70
     1
102
RTVSPost2010Prop28
280
     0
102
RTVSPost2010PropOp28
 70
     1
102
RTVSPost2010Prop29
280
     1
102
RTVSPost2010PropOp29
 70
     1
102
RTVSPost2010Prop30
280
     1
102
RTVSPost2010PropOp30
 70
     1
102
RTVSPost2010Prop31
280
     0
102
RTVSPost2010PropOp31
 70
     1
102
RTVSPost2010Prop32
280
     0
102
RTVSPost2010PropOp32
 70
     1
102
RTVSPost2010Prop33
280
     0
102
RTVSPost2010PropOp33
 70
     1
102
RTVSPost2010Prop34
280
     0
102
RTVSPost2010PropOp34
 70
     1
102
RTVSPost2010Prop35
280
     0
102
RTVSPost2010PropOp35
 70
     1
102
RTVSPost2010Prop36
280
     0
102
RTVSPost2010PropOp36
 70
     1
102
RTVSPost2010Prop37
 90
       50
102
RTVSPost2010PropOp37
 70
     1
102
RTVSPost2010Prop38
140
0.0
102
RTVSPost2010PropOp38
 70
     1
102
RTVSPost2010Prop39
140
1.0
102
RTVSPost2010PropOp39
 70
     1
102
RTVSPost2010Prop40
 90
        0
102
RTVSPost2010PropOp40
 70
     1
102
RTVSPost2010Prop41ColorIndex
 90
       18
102
RTVSPost2010Prop41ColorRGB
 90
        0
102
RTVSPost2010PropOp41
 70
     1
102
RTVSPost2010Prop42
 90
       50
102
RTVSPost2010PropOp42
 70
     1
102
RTVSPost2010Prop43
 90
        3
102
RTVSPost2010PropOp43
 70
     1
102
RTVSPost2010Prop44ColorIndex
 90
        5
102
RTVSPost2010Prop44ColorRGB
 90
      255
102
RTVSPost2010PropOp44
 70
     1
102
RTVSPost2010Prop45
280
     0
102
RTVSPost2010PropOp45
 70
     1
102
RTVSPost2010Prop46
 90
       50
102
RTVSPost2010PropOp46
 70
     1
102
RTVSPost2010Prop47
 90
       50
102
RTVSPost2010PropOp47
 70
     1
102
RTVSPost2010Prop48
 90
       50
102
RTVSPost2010PropOp48
 70
     1
102
RTVSPost2010Prop49
280
     0
102
RTVSPost2010PropOp49
 70
     1
102
RTVSPost2010Prop50
 90
       50
102
RTVSPost2010PropOp50
 70
     1
102
RTVSPost2010Prop51ColorIndex
 90
      256
102
RTVSPost2010Prop51ColorRGB
 90
-16777216
102
RTVSPost2010PropOp51
 70
     0
102
RTVSPost2010Prop52
140
1.0
102
RTVSPost2010PropOp52
 70
     0
102
RTVSPost2010Prop53
 90
        2
102
RTVSPost2010PropOp53
 70
     1
102
RTVSPost2010Prop54
  1
strokes_ogs.tif
102
RTVSPost2010PropOp54
 70
     1
102
RTVSPost2010Prop55
280
     0
102
RTVSPost2010PropOp55
 70
     1
102
RTVSPost2010Prop56
140
1.0
102
RTVSPost2010PropOp56
 70
     1
102
RTVSPost2010Prop57
140
1.0
102
RTVSPost2010PropOp57
 70
     1
  0
XRECORD
  5
319
102
{ACAD_REACTORS
330
318
102
}
330
318
100
AcDbXrecord
280
     1
102
RTVSPropertyOp0
 70
     0
102
RTVSPropertyOp1
 70
     0
102
RTVSPropertyOp2
 70
     0
102
RTVSPropertyOp3
 70
     0
102
RTVSPropertyOp4
 70
     0
102
RTVSPropertyOp5
 70
     0
102
RTVSPropertyOp6
 70
     0
102
RTVSPropertyOp7
 70
     0
102
RTVSPropertyOp8
 70
     0
102
RTVSPropertyOp9
 70
     0
102
RTVSPropertyOp10
 70
     0
102
RTVSPropertyOp11
 70
     0
102
RTVSPropertyOp12
 70
     0
102
RTVSPropertyOp13
 70
     0
102
RTVSPropertyOp14
 70
     2
102
RTVSPropertyOp15
 70
     0
102
RTVSPropertyOp16
 70
     0
102
RTVSPropertyOp17
 70
     0
102
RTVSPropertyOp18
 70
     0
102
RTVSPropertyOp19
 70
     0
102
RTVSPropertyOp20
 70
     0
102
RTVSPropertyOp21
 70
     0
102
RTVSPropertyOp22
 70
     0
102
RTVSPropertyOp23
 70
     0
102
RTVSPropertyOp24
 70
     0
102
RTVSPropertyOp25
 70
     0
102
RTVSPropertyOp26
 70
     0
102
RTVSPropertyOp27
 70
     0
102
RTVSPropertyOp28
 70
     0
102
RTVSPropertyOp29
 70
     0
102
RTVSPropertyOp30
 70
     0
102
RTVSPropertyOp31
 70
     0
102
RTVSPropertyOp32
 70
     0
102
RTVSPropertyOp33
 70
     0
102
RTVSPropertyOp34
 70
     0
102
RTVSPropertyOp35
 70
     0
102
RTVSPropertyOp36
 70
     0
102
RTVSPropertyOp37
 70
     0
102
RTVSPropertyOp38
 70
     0
102
RTVSPropertyOp39
 70
     0
102
RTVSPropertyOp40
 70
     0
102
RTVSPropertyOp41
 70
     0
102
RTVSPropertyOp42
 70
     0
102
RTVSPropertyOp43
 70
     0
102
RTVSPropertyOp44
 70
     0
102
RTVSPropertyOp45
 70
     0
102
RTVSPropertyOp46
 70
     0
102
RTVSPropertyOp47
 70
     0
102
RTVSPropertyOp48
 70
     0
102
RTVSPropertyOp49
 70
     0
102
RTVSPropertyOp50
 70
     0
102
RTVSPropertyOp51
 70
     0
102
RTVSPropertyOp52
 70
     0
102
RTVSPropertyOp53
 70
     0
102
RTVSPropertyOp54
 70
     0
102
RTVSPropertyOp55
 70
     0
102
RTVSPropertyOp56
 70
     0
102
RTVSPropertyOp57
 70
     0
102
RTVSPost2010Prop28
280
     0
102
RTVSPost2010PropOp28
 70
     0
102
RTVSPost2010Prop29
280
     1
102
RTVSPost2010PropOp29
 70
     0
102
RTVSPost2010Prop30
280
     1
102
RTVSPost2010PropOp30
 70
     0
102
RTVSPost2010Prop31
280
     0
102
RTVSPost2010PropOp31
 70
     0
102
RTVSPost2010Prop32
280
     0
102
RTVSPost2010PropOp32
 70
     0
102
RTVSPost2010Prop33
280
     0
102
RTVSPost2010PropOp33
 70
     0
102
RTVSPost2010Prop34
280
     0
102
RTVSPost2010PropOp34
 70
     0
102
RTVSPost2010Prop35
280
     0
102
RTVSPost2010PropOp35
 70
     0
102
RTVSPost2010Prop36
280
     0
102
RTVSPost2010PropOp36
 70
     0
102
RTVSPost2010Prop37
 90
       50
102
RTVSPost2010PropOp37
 70
     0
102
RTVSPost2010Prop38
140
0.0
102
RTVSPost2010PropOp38
 70
     0
102
RTVSPost2010Prop39
140
1.0
102
RTVSPost2010PropOp39
 70
     0
102
RTVSPost2010Prop40
 90
        0
102
RTVSPost2010PropOp40
 70
     0
102
RTVSPost2010Prop41ColorIndex
 90
       18
102
RTVSPost2010Prop41ColorRGB
 90
        0
102
RTVSPost2010PropOp41
 70
     0
102
RTVSPost2010Prop42
 90
       50
102
RTVSPost2010PropOp42
 70
     0
102
RTVSPost2010Prop43
 90
        3
102
RTVSPost2010PropOp43
 70
     0
102
RTVSPost2010Prop44ColorIndex
 90
        5
102
RTVSPost2010Prop44ColorRGB
 90
      255
102
RTVSPost2010PropOp44
 70
     0
102
RTVSPost2010Prop45
280
     0
102
RTVSPost2010PropOp45
 70
     0
102
RTVSPost2010Prop46
 90
       50
102
RTVSPost2010PropOp46
 70
     0
102
RTVSPost2010Prop47
 90
       50
102
RTVSPost2010PropOp47
 70
     0
102
RTVSPost2010Prop48
 90
       50
102
RTVSPost2010PropOp48
 70
     0
102
RTVSPost2010Prop49
280
     0
102
RTVSPost2010PropOp49
 70
     0
102
RTVSPost2010Prop50
 90
       50
102
RTVSPost2010PropOp50
 70
     0
102
RTVSPost2010Prop51ColorIndex
 90
      256
102
RTVSPost2010Prop51ColorRGB
 90
-16777216
102
RTVSPost2010PropOp51
 70
     0
102
RTVSPost2010Prop52
140
1.0
102
RTVSPost2010PropOp52
 70
     0
102
RTVSPost2010Prop53
 90
        2
102
RTVSPost2010PropOp53
 70
     0
102
RTVSPost2010Prop54
  1
strokes_ogs.tif
102
RTVSPost2010PropOp54
 70
     0
102
RTVSPost2010Prop55
280
     0
102
RTVSPost2010PropOp55
 70
     0
102
RTVSPost2010Prop56
140
1.0
102
RTVSPost2010PropOp56
 70
     0
102
RTVSPost2010Prop57
140
1.0
102
RTVSPost2010PropOp57
 70
     0
  0
XRECORD
  5
307
102
{ACAD_REACTORS
330
306
102
}
330
306
100
AcDbXrecord
280
     1
102
RTVSPropertyOp0
 70
     1
102
RTVSPropertyOp1
 70
     1
102
RTVSPropertyOp2
 70
     1
102
RTVSPropertyOp3
 70
     1
102
RTVSPropertyOp4
 70
     1
102
RTVSPropertyOp5
 70
     1
102
RTVSPropertyOp6
 70
     1
102
RTVSPropertyOp7
 70
     1
102
RTVSPropertyOp8
 70
     1
102
RTVSPropertyOp9
 70
     1
102
RTVSPropertyOp10
 70
     1
102
RTVSPropertyOp11
 70
     1
102
RTVSPropertyOp12
 70
     1
102
RTVSPropertyOp13
 70
     1
102
RTVSPropertyOp14
 70
     1
102
RTVSPropertyOp15
 70
     1
102
RTVSPropertyOp16
 70
     1
102
RTVSPropertyOp17
 70
     1
102
RTVSPropertyOp18
 70
     1
102
RTVSPropertyOp19
 70
     1
102
RTVSPropertyOp20
 70
     1
102
RTVSPropertyOp21
 70
     1
102
RTVSPropertyOp22
 70
     1
102
RTVSPropertyOp23
 70
     1
102
RTVSPropertyOp24
 70
     1
102
RTVSPropertyOp25
 70
     1
102
RTVSPropertyOp26
 70
     1
102
RTVSPropertyOp27
 70
     1
102
RTVSPropertyOp28
 70
     1
102
RTVSPropertyOp29
 70
     1
102
RTVSPropertyOp30
 70
     1
102
RTVSPropertyOp31
 70
     1
102
RTVSPropertyOp32
 70
     1
102
RTVSPropertyOp33
 70
     1
102
RTVSPropertyOp34
 70
     1
102
RTVSPropertyOp35
 70
     1
102
RTVSPropertyOp36
 70
     1
102
RTVSPropertyOp37
 70
     1
102
RTVSPropertyOp38
 70
     1
102
RTVSPropertyOp39
 70
     1
102
RTVSPropertyOp40
 70
     1
102
RTVSPropertyOp41
 70
     1
102
RTVSPropertyOp42
 70
     1
102
RTVSPropertyOp43
 70
     1
102
RTVSPropertyOp44
 70
     1
102
RTVSPropertyOp45
 70
     1
102
RTVSPropertyOp46
 70
     1
102
RTVSPropertyOp47
 70
     1
102
RTVSPropertyOp48
 70
     1
102
RTVSPropertyOp49
 70
     1
102
RTVSPropertyOp50
 70
     1
102
RTVSPropertyOp51
 70
     0
102
RTVSPropertyOp52
 70
     0
102
RTVSPropertyOp53
 70
     1
102
RTVSPropertyOp54
 70
     1
102
RTVSPropertyOp55
 70
     1
102
RTVSPropertyOp56
 70
     1
102
RTVSPropertyOp57
 70
     1
102
RTVSPost2010Prop28
280
     0
102
RTVSPost2010PropOp28
 70
     1
102
RTVSPost2010Prop29
280
     1
102
RTVSPost2010PropOp29
 70
     1
102
RTVSPost2010Prop30
280
     1
102
RTVSPost2010PropOp30
 70
     1
102
RTVSPost2010Prop31
280
     0
102
RTVSPost2010PropOp31
 70
     1
102
RTVSPost2010Prop32
280
     0
102
RTVSPost2010PropOp32
 70
     1
102
RTVSPost2010Prop33
280
     0
102
RTVSPost2010PropOp33
 70
     1
102
RTVSPost2010Prop34
280
     0
102
RTVSPost2010PropOp34
 70
     1
102
RTVSPost2010Prop35
280
     0
102
RTVSPost2010PropOp35
 70
     1
102
RTVSPost2010Prop36
280
     0
102
RTVSPost2010PropOp36
 70
     1
102
RTVSPost2010Prop37
 90
       50
102
RTVSPost2010PropOp37
 70
     1
102
RTVSPost2010Prop38
140
0.0
102
RTVSPost2010PropOp38
 70
     1
102
RTVSPost2010Prop39
140
1.0
102
RTVSPost2010PropOp39
 70
     1
102
RTVSPost2010Prop40
 90
        0
102
RTVSPost2010PropOp40
 70
     1
102
RTVSPost2010Prop41ColorIndex
 90
       18
102
RTVSPost2010Prop41ColorRGB
 90
        0
102
RTVSPost2010PropOp41
 70
     1
102
RTVSPost2010Prop42
 90
       50
102
RTVSPost2010PropOp42
 70
     1
102
RTVSPost2010Prop43
 90
        3
102
RTVSPost2010PropOp43
 70
     1
102
RTVSPost2010Prop44ColorIndex
 90
        5
102
RTVSPost2010Prop44ColorRGB
 90
      255
102
RTVSPost2010PropOp44
 70
     1
102
RTVSPost2010Prop45
280
     0
102
RTVSPost2010PropOp45
 70
     1
102
RTVSPost2010Prop46
 90
       50
102
RTVSPost2010PropOp46
 70
     1
102
RTVSPost2010Prop47
 90
       50
102
RTVSPost2010PropOp47
 70
     1
102
RTVSPost2010Prop48
 90
       50
102
RTVSPost2010PropOp48
 70
     1
102
RTVSPost2010Prop49
280
     0
102
RTVSPost2010PropOp49
 70
     1
102
RTVSPost2010Prop50
 90
       50
102
RTVSPost2010PropOp50
 70
     1
102
RTVSPost2010Prop51ColorIndex
 90
      256
102
RTVSPost2010Prop51ColorRGB
 90
-16777216
102
RTVSPost2010PropOp51
 70
     0
102
RTVSPost2010Prop52
140
1.0
102
RTVSPost2010PropOp52
 70
     0
102
RTVSPost2010Prop53
 90
        2
102
RTVSPost2010PropOp53
 70
     1
102
RTVSPost2010Prop54
  1
strokes_ogs.tif
102
RTVSPost2010PropOp54
 70
     1
102
RTVSPost2010Prop55
280
     0
102
RTVSPost2010PropOp55
 70
     1
102
RTVSPost2010Prop56
140
1.0
102
RTVSPost2010PropOp56
 70
     1
102
RTVSPost2010Prop57
140
1.0
102
RTVSPost2010PropOp57
 70
     1
  0
XRECORD
  5
325
102
{ACAD_REACTORS
330
324
102
}
330
324
100
AcDbXrecord
280
     1
102
RTVSPropertyOp0
 70
     1
102
RTVSPropertyOp1
 70
     1
102
RTVSPropertyOp2
 70
     1
102
RTVSPropertyOp3
 70
     1
102
RTVSPropertyOp4
 70
     1
102
RTVSPropertyOp5
 70
     1
102
RTVSPropertyOp6
 70
     1
102
RTVSPropertyOp7
 70
     1
102
RTVSPropertyOp8
 70
     1
102
RTVSPropertyOp9
 70
     1
102
RTVSPropertyOp10
 70
     1
102
RTVSPropertyOp11
 70
     1
102
RTVSPropertyOp12
 70
     1
102
RTVSPropertyOp13
 70
     1
102
RTVSPropertyOp14
 70
     1
102
RTVSPropertyOp15
 70
     1
102
RTVSPropertyOp16
 70
     1
102
RTVSPropertyOp17
 70
     1
102
RTVSPropertyOp18
 70
     1
102
RTVSPropertyOp19
 70
     1
102
RTVSPropertyOp20
 70
     1
102
RTVSPropertyOp21
 70
     1
102
RTVSPropertyOp22
 70
     1
102
RTVSPropertyOp23
 70
     1
102
RTVSPropertyOp24
 70
     1
102
RTVSPropertyOp25
 70
     1
102
RTVSPropertyOp26
 70
     1
102
RTVSPropertyOp27
 70
     1
102
RTVSPropertyOp28
 70
     1
102
RTVSPropertyOp29
 70
     1
102
RTVSPropertyOp30
 70
     1
102
RTVSPropertyOp31
 70
     1
102
RTVSPropertyOp32
 70
     1
102
RTVSPropertyOp33
 70
     1
102
RTVSPropertyOp34
 70
     1
102
RTVSPropertyOp35
 70
     1
102
RTVSPropertyOp36
 70
     1
102
RTVSPropertyOp37
 70
     1
102
RTVSPropertyOp38
 70
     1
102
RTVSPropertyOp39
 70
     1
102
RTVSPropertyOp40
 70
     1
102
RTVSPropertyOp41
 70
     1
102
RTVSPropertyOp42
 70
     1
102
RTVSPropertyOp43
 70
     1
102
RTVSPropertyOp44
 70
     1
102
RTVSPropertyOp45
 70
     1
102
RTVSPropertyOp46
 70
     1
102
RTVSPropertyOp47
 70
     1
102
RTVSPropertyOp48
 70
     1
102
RTVSPropertyOp49
 70
     1
102
RTVSPropertyOp50
 70
     1
102
RTVSPropertyOp51
 70
     0
102
RTVSPropertyOp52
 70
     0
102
RTVSPropertyOp53
 70
     1
102
RTVSPropertyOp54
 70
     1
102
RTVSPropertyOp55
 70
     1
102
RTVSPropertyOp56
 70
     1
102
RTVSPropertyOp57
 70
     1
102
RTVSPost2010Prop28
280
     0
102
RTVSPost2010PropOp28
 70
     1
102
RTVSPost2010Prop29
280
     1
102
RTVSPost2010PropOp29
 70
     1
102
RTVSPost2010Prop30
280
     1
102
RTVSPost2010PropOp30
 70
     1
102
RTVSPost2010Prop31
280
     0
102
RTVSPost2010PropOp31
 70
     1
102
RTVSPost2010Prop32
280
     0
102
RTVSPost2010PropOp32
 70
     1
102
RTVSPost2010Prop33
280
     0
102
RTVSPost2010PropOp33
 70
     1
102
RTVSPost2010Prop34
280
     0
102
RTVSPost2010PropOp34
 70
     1
102
RTVSPost2010Prop35
280
     0
102
RTVSPost2010PropOp35
 70
     1
102
RTVSPost2010Prop36
280
     0
102
RTVSPost2010PropOp36
 70
     1
102
RTVSPost2010Prop37
 90
       50
102
RTVSPost2010PropOp37
 70
     1
102
RTVSPost2010Prop38
140
0.0
102
RTVSPost2010PropOp38
 70
     1
102
RTVSPost2010Prop39
140
1.0
102
RTVSPost2010PropOp39
 70
     1
102
RTVSPost2010Prop40
 90
        0
102
RTVSPost2010PropOp40
 70
     1
102
RTVSPost2010Prop41ColorIndex
 90
       18
102
RTVSPost2010Prop41ColorRGB
 90
        0
102
RTVSPost2010PropOp41
 70
     1
102
RTVSPost2010Prop42
 90
       50
102
RTVSPost2010PropOp42
 70
     1
102
RTVSPost2010Prop43
 90
        3
102
RTVSPost2010PropOp43
 70
     1
102
RTVSPost2010Prop44ColorIndex
 90
        5
102
RTVSPost2010Prop44ColorRGB
 90
      255
102
RTVSPost2010PropOp44
 70
     1
102
RTVSPost2010Prop45
280
     0
102
RTVSPost2010PropOp45
 70
     1
102
RTVSPost2010Prop46
 90
       50
102
RTVSPost2010PropOp46
 70
     1
102
RTVSPost2010Prop47
 90
       50
102
RTVSPost2010PropOp47
 70
     1
102
RTVSPost2010Prop48
 90
       50
102
RTVSPost2010PropOp48
 70
     1
102
RTVSPost2010Prop49
280
     0
102
RTVSPost2010PropOp49
 70
     1
102
RTVSPost2010Prop50
 90
       50
102
RTVSPost2010PropOp50
 70
     1
102
RTVSPost2010Prop51ColorIndex
 90
      256
102
RTVSPost2010Prop51ColorRGB
 90
-16777216
102
RTVSPost2010PropOp51
 70
     0
102
RTVSPost2010Prop52
140
1.0
102
RTVSPost2010PropOp52
 70
     0
102
RTVSPost2010Prop53
 90
        2
102
RTVSPost2010PropOp53
 70
     1
102
RTVSPost2010Prop54
  1
strokes_ogs.tif
102
RTVSPost2010PropOp54
 70
     1
102
RTVSPost2010Prop55
280
     0
102
RTVSPost2010PropOp55
 70
     1
102
RTVSPost2010Prop56
140
1.0
102
RTVSPost2010PropOp56
 70
     1
102
RTVSPost2010Prop57
140
1.0
102
RTVSPost2010PropOp57
 70
     1
  0
XRECORD
  5
323
102
{ACAD_REACTORS
330
322
102
}
330
322
100
AcDbXrecord
280
     1
102
RTVSPropertyOp0
 70
     1
102
RTVSPropertyOp1
 70
     1
102
RTVSPropertyOp2
 70
     1
102
RTVSPropertyOp3
 70
     1
102
RTVSPropertyOp4
 70
     1
102
RTVSPropertyOp5
 70
     1
102
RTVSPropertyOp6
 70
     1
102
RTVSPropertyOp7
 70
     1
102
RTVSPropertyOp8
 70
     1
102
RTVSPropertyOp9
 70
     1
102
RTVSPropertyOp10
 70
     1
102
RTVSPropertyOp11
 70
     1
102
RTVSPropertyOp12
 70
     1
102
RTVSPropertyOp13
 70
     1
102
RTVSPropertyOp14
 70
     1
102
RTVSPropertyOp15
 70
     1
102
RTVSPropertyOp16
 70
     1
102
RTVSPropertyOp17
 70
     1
102
RTVSPropertyOp18
 70
     1
102
RTVSPropertyOp19
 70
     1
102
RTVSPropertyOp20
 70
     1
102
RTVSPropertyOp21
 70
     1
102
RTVSPropertyOp22
 70
     1
102
RTVSPropertyOp23
 70
     1
102
RTVSPropertyOp24
 70
     1
102
RTVSPropertyOp25
 70
     1
102
RTVSPropertyOp26
 70
     1
102
RTVSPropertyOp27
 70
     1
102
RTVSPropertyOp28
 70
     1
102
RTVSPropertyOp29
 70
     1
102
RTVSPropertyOp30
 70
     1
102
RTVSPropertyOp31
 70
     1
102
RTVSPropertyOp32
 70
     1
102
RTVSPropertyOp33
 70
     1
102
RTVSPropertyOp34
 70
     1
102
RTVSPropertyOp35
 70
     1
102
RTVSPropertyOp36
 70
     1
102
RTVSPropertyOp37
 70
     1
102
RTVSPropertyOp38
 70
     1
102
RTVSPropertyOp39
 70
     1
102
RTVSPropertyOp40
 70
     1
102
RTVSPropertyOp41
 70
     1
102
RTVSPropertyOp42
 70
     1
102
RTVSPropertyOp43
 70
     1
102
RTVSPropertyOp44
 70
     1
102
RTVSPropertyOp45
 70
     1
102
RTVSPropertyOp46
 70
     1
102
RTVSPropertyOp47
 70
     1
102
RTVSPropertyOp48
 70
     1
102
RTVSPropertyOp49
 70
     1
102
RTVSPropertyOp50
 70
     1
102
RTVSPropertyOp51
 70
     0
102
RTVSPropertyOp52
 70
     0
102
RTVSPropertyOp53
 70
     1
102
RTVSPropertyOp54
 70
     1
102
RTVSPropertyOp55
 70
     1
102
RTVSPropertyOp56
 70
     1
102
RTVSPropertyOp57
 70
     1
102
RTVSPost2010Prop28
280
     0
102
RTVSPost2010PropOp28
 70
     1
102
RTVSPost2010Prop29
280
     1
102
RTVSPost2010PropOp29
 70
     1
102
RTVSPost2010Prop30
280
     1
102
RTVSPost2010PropOp30
 70
     1
102
RTVSPost2010Prop31
280
     0
102
RTVSPost2010PropOp31
 70
     1
102
RTVSPost2010Prop32
280
     0
102
RTVSPost2010PropOp32
 70
     1
102
RTVSPost2010Prop33
280
     0
102
RTVSPost2010PropOp33
 70
     1
102
RTVSPost2010Prop34
280
     0
102
RTVSPost2010PropOp34
 70
     1
102
RTVSPost2010Prop35
280
     0
102
RTVSPost2010PropOp35
 70
     1
102
RTVSPost2010Prop36
280
     0
102
RTVSPost2010PropOp36
 70
     1
102
RTVSPost2010Prop37
 90
       50
102
RTVSPost2010PropOp37
 70
     1
102
RTVSPost2010Prop38
140
0.0
102
RTVSPost2010PropOp38
 70
     1
102
RTVSPost2010Prop39
140
1.0
102
RTVSPost2010PropOp39
 70
     1
102
RTVSPost2010Prop40
 90
        0
102
RTVSPost2010PropOp40
 70
     1
102
RTVSPost2010Prop41ColorIndex
 90
       18
102
RTVSPost2010Prop41ColorRGB
 90
        0
102
RTVSPost2010PropOp41
 70
     1
102
RTVSPost2010Prop42
 90
       50
102
RTVSPost2010PropOp42
 70
     1
102
RTVSPost2010Prop43
 90
        3
102
RTVSPost2010PropOp43
 70
     1
102
RTVSPost2010Prop44ColorIndex
 90
        5
102
RTVSPost2010Prop44ColorRGB
 90
      255
102
RTVSPost2010PropOp44
 70
     1
102
RTVSPost2010Prop45
280
     0
102
RTVSPost2010PropOp45
 70
     1
102
RTVSPost2010Prop46
 90
       50
102
RTVSPost2010PropOp46
 70
     1
102
RTVSPost2010Prop47
 90
       50
102
RTVSPost2010PropOp47
 70
     1
102
RTVSPost2010Prop48
 90
       50
102
RTVSPost2010PropOp48
 70
     1
102
RTVSPost2010Prop49
280
     0
102
RTVSPost2010PropOp49
 70
     1
102
RTVSPost2010Prop50
 90
       50
102
RTVSPost2010PropOp50
 70
     1
102
RTVSPost2010Prop51ColorIndex
 90
      256
102
RTVSPost2010Prop51ColorRGB
 90
-16777216
102
RTVSPost2010PropOp51
 70
     0
102
RTVSPost2010Prop52
140
1.0
102
RTVSPost2010PropOp52
 70
     0
102
RTVSPost2010Prop53
 90
        2
102
RTVSPost2010PropOp53
 70
     1
102
RTVSPost2010Prop54
  1
strokes_ogs.tif
102
RTVSPost2010PropOp54
 70
     1
102
RTVSPost2010Prop55
280
     0
102
RTVSPost2010PropOp55
 70
     1
102
RTVSPost2010Prop56
140
1.0
102
RTVSPost2010PropOp56
 70
     1
102
RTVSPost2010Prop57
140
1.0
102
RTVSPost2010PropOp57
 70
     1
  0
XRECORD
  5
31D
102
{ACAD_REACTORS
330
31C
102
}
330
31C
100
AcDbXrecord
280
     1
102
RTVSPropertyOp0
 70
     1
102
RTVSPropertyOp1
 70
     1
102
RTVSPropertyOp2
 70
     1
102
RTVSPropertyOp3
 70
     1
102
RTVSPropertyOp4
 70
     1
102
RTVSPropertyOp5
 70
     1
102
RTVSPropertyOp6
 70
     1
102
RTVSPropertyOp7
 70
     1
102
RTVSPropertyOp8
 70
     1
102
RTVSPropertyOp9
 70
     1
102
RTVSPropertyOp10
 70
     1
102
RTVSPropertyOp11
 70
     1
102
RTVSPropertyOp12
 70
     1
102
RTVSPropertyOp13
 70
     1
102
RTVSPropertyOp14
 70
     1
102
RTVSPropertyOp15
 70
     1
102
RTVSPropertyOp16
 70
     1
102
RTVSPropertyOp17
 70
     1
102
RTVSPropertyOp18
 70
     1
102
RTVSPropertyOp19
 70
     1
102
RTVSPropertyOp20
 70
     1
102
RTVSPropertyOp21
 70
     1
102
RTVSPropertyOp22
 70
     1
102
RTVSPropertyOp23
 70
     1
102
RTVSPropertyOp24
 70
     1
102
RTVSPropertyOp25
 70
     1
102
RTVSPropertyOp26
 70
     1
102
RTVSPropertyOp27
 70
     1
102
RTVSPropertyOp28
 70
     1
102
RTVSPropertyOp29
 70
     1
102
RTVSPropertyOp30
 70
     1
102
RTVSPropertyOp31
 70
     1
102
RTVSPropertyOp32
 70
     1
102
RTVSPropertyOp33
 70
     1
102
RTVSPropertyOp34
 70
     1
102
RTVSPropertyOp35
 70
     1
102
RTVSPropertyOp36
 70
     1
102
RTVSPropertyOp37
 70
     1
102
RTVSPropertyOp38
 70
     1
102
RTVSPropertyOp39
 70
     1
102
RTVSPropertyOp40
 70
     1
102
RTVSPropertyOp41
 70
     1
102
RTVSPropertyOp42
 70
     1
102
RTVSPropertyOp43
 70
     1
102
RTVSPropertyOp44
 70
     1
102
RTVSPropertyOp45
 70
     1
102
RTVSPropertyOp46
 70
     1
102
RTVSPropertyOp47
 70
     1
102
RTVSPropertyOp48
 70
     1
102
RTVSPropertyOp49
 70
     1
102
RTVSPropertyOp50
 70
     1
102
RTVSPropertyOp51
 70
     0
102
RTVSPropertyOp52
 70
     0
102
RTVSPropertyOp53
 70
     1
102
RTVSPropertyOp54
 70
     1
102
RTVSPropertyOp55
 70
     1
102
RTVSPropertyOp56
 70
     1
102
RTVSPropertyOp57
 70
     1
102
RTVSPost2010Prop28
280
     0
102
RTVSPost2010PropOp28
 70
     1
102
RTVSPost2010Prop29
280
     1
102
RTVSPost2010PropOp29
 70
     1
102
RTVSPost2010Prop30
280
     1
102
RTVSPost2010PropOp30
 70
     1
102
RTVSPost2010Prop31
280
     0
102
RTVSPost2010PropOp31
 70
     1
102
RTVSPost2010Prop32
280
     0
102
RTVSPost2010PropOp32
 70
     1
102
RTVSPost2010Prop33
280
     0
102
RTVSPost2010PropOp33
 70
     1
102
RTVSPost2010Prop34
280
     0
102
RTVSPost2010PropOp34
 70
     1
102
RTVSPost2010Prop35
280
     0
102
RTVSPost2010PropOp35
 70
     1
102
RTVSPost2010Prop36
280
     0
102
RTVSPost2010PropOp36
 70
     1
102
RTVSPost2010Prop37
 90
       50
102
RTVSPost2010PropOp37
 70
     1
102
RTVSPost2010Prop38
140
0.0
102
RTVSPost2010PropOp38
 70
     1
102
RTVSPost2010Prop39
140
1.0
102
RTVSPost2010PropOp39
 70
     1
102
RTVSPost2010Prop40
 90
        0
102
RTVSPost2010PropOp40
 70
     1
102
RTVSPost2010Prop41ColorIndex
 90
       18
102
RTVSPost2010Prop41ColorRGB
 90
        0
102
RTVSPost2010PropOp41
 70
     1
102
RTVSPost2010Prop42
 90
       50
102
RTVSPost2010PropOp42
 70
     1
102
RTVSPost2010Prop43
 90
        3
102
RTVSPost2010PropOp43
 70
     1
102
RTVSPost2010Prop44ColorIndex
 90
        5
102
RTVSPost2010Prop44ColorRGB
 90
      255
102
RTVSPost2010PropOp44
 70
     1
102
RTVSPost2010Prop45
280
     0
102
RTVSPost2010PropOp45
 70
     1
102
RTVSPost2010Prop46
 90
       50
102
RTVSPost2010PropOp46
 70
     1
102
RTVSPost2010Prop47
 90
       50
102
RTVSPost2010PropOp47
 70
     1
102
RTVSPost2010Prop48
 90
       50
102
RTVSPost2010PropOp48
 70
     1
102
RTVSPost2010Prop49
280
     0
102
RTVSPost2010PropOp49
 70
     1
102
RTVSPost2010Prop50
 90
       50
102
RTVSPost2010PropOp50
 70
     1
102
RTVSPost2010Prop51ColorIndex
 90
      256
102
RTVSPost2010Prop51ColorRGB
 90
-16777216
102
RTVSPost2010PropOp51
 70
     0
102
RTVSPost2010Prop52
140
1.0
102
RTVSPost2010PropOp52
 70
     0
102
RTVSPost2010Prop53
 90
        2
102
RTVSPost2010PropOp53
 70
     1
102
RTVSPost2010Prop54
  1
strokes_ogs.tif
102
RTVSPost2010PropOp54
 70
     1
102
RTVSPost2010Prop55
280
     0
102
RTVSPost2010PropOp55
 70
     1
102
RTVSPost2010Prop56
140
1.0
102
RTVSPost2010PropOp56
 70
     1
102
RTVSPost2010Prop57
140
1.0
102
RTVSPost2010PropOp57
 70
     1
  0
XRECORD
  5
31F
102
{ACAD_REACTORS
330
31E
102
}
330
31E
100
AcDbXrecord
280
     1
102
RTVSPropertyOp0
 70
     1
102
RTVSPropertyOp1
 70
     1
102
RTVSPropertyOp2
 70
     1
102
RTVSPropertyOp3
 70
     1
102
RTVSPropertyOp4
 70
     1
102
RTVSPropertyOp5
 70
     1
102
RTVSPropertyOp6
 70
     1
102
RTVSPropertyOp7
 70
     1
102
RTVSPropertyOp8
 70
     1
102
RTVSPropertyOp9
 70
     1
102
RTVSPropertyOp10
 70
     1
102
RTVSPropertyOp11
 70
     1
102
RTVSPropertyOp12
 70
     1
102
RTVSPropertyOp13
 70
     1
102
RTVSPropertyOp14
 70
     1
102
RTVSPropertyOp15
 70
     1
102
RTVSPropertyOp16
 70
     1
102
RTVSPropertyOp17
 70
     1
102
RTVSPropertyOp18
 70
     1
102
RTVSPropertyOp19
 70
     1
102
RTVSPropertyOp20
 70
     1
102
RTVSPropertyOp21
 70
     1
102
RTVSPropertyOp22
 70
     1
102
RTVSPropertyOp23
 70
     1
102
RTVSPropertyOp24
 70
     1
102
RTVSPropertyOp25
 70
     1
102
RTVSPropertyOp26
 70
     1
102
RTVSPropertyOp27
 70
     1
102
RTVSPropertyOp28
 70
     1
102
RTVSPropertyOp29
 70
     1
102
RTVSPropertyOp30
 70
     1
102
RTVSPropertyOp31
 70
     1
102
RTVSPropertyOp32
 70
     1
102
RTVSPropertyOp33
 70
     1
102
RTVSPropertyOp34
 70
     1
102
RTVSPropertyOp35
 70
     1
102
RTVSPropertyOp36
 70
     1
102
RTVSPropertyOp37
 70
     1
102
RTVSPropertyOp38
 70
     1
102
RTVSPropertyOp39
 70
     1
102
RTVSPropertyOp40
 70
     1
102
RTVSPropertyOp41
 70
     1
102
RTVSPropertyOp42
 70
     1
102
RTVSPropertyOp43
 70
     1
102
RTVSPropertyOp44
 70
     1
102
RTVSPropertyOp45
 70
     1
102
RTVSPropertyOp46
 70
     1
102
RTVSPropertyOp47
 70
     1
102
RTVSPropertyOp48
 70
     1
102
RTVSPropertyOp49
 70
     1
102
RTVSPropertyOp50
 70
     1
102
RTVSPropertyOp51
 70
     0
102
RTVSPropertyOp52
 70
     0
102
RTVSPropertyOp53
 70
     1
102
RTVSPropertyOp54
 70
     1
102
RTVSPropertyOp55
 70
     1
102
RTVSPropertyOp56
 70
     1
102
RTVSPropertyOp57
 70
     1
102
RTVSPost2010Prop28
280
     0
102
RTVSPost2010PropOp28
 70
     1
102
RTVSPost2010Prop29
280
     1
102
RTVSPost2010PropOp29
 70
     1
102
RTVSPost2010Prop30
280
     1
102
RTVSPost2010PropOp30
 70
     1
102
RTVSPost2010Prop31
280
     0
102
RTVSPost2010PropOp31
 70
     1
102
RTVSPost2010Prop32
280
     0
102
RTVSPost2010PropOp32
 70
     1
102
RTVSPost2010Prop33
280
     0
102
RTVSPost2010PropOp33
 70
     1
102
RTVSPost2010Prop34
280
     0
102
RTVSPost2010PropOp34
 70
     1
102
RTVSPost2010Prop35
280
     0
102
RTVSPost2010PropOp35
 70
     1
102
RTVSPost2010Prop36
280
     0
102
RTVSPost2010PropOp36
 70
     1
102
RTVSPost2010Prop37
 90
       50
102
RTVSPost2010PropOp37
 70
     1
102
RTVSPost2010Prop38
140
0.0
102
RTVSPost2010PropOp38
 70
     1
102
RTVSPost2010Prop39
140
1.0
102
RTVSPost2010PropOp39
 70
     1
102
RTVSPost2010Prop40
 90
        0
102
RTVSPost2010PropOp40
 70
     1
102
RTVSPost2010Prop41ColorIndex
 90
       18
102
RTVSPost2010Prop41ColorRGB
 90
        0
102
RTVSPost2010PropOp41
 70
     1
102
RTVSPost2010Prop42
 90
       50
102
RTVSPost2010PropOp42
 70
     1
102
RTVSPost2010Prop43
 90
        3
102
RTVSPost2010PropOp43
 70
     1
102
RTVSPost2010Prop44ColorIndex
 90
        5
102
RTVSPost2010Prop44ColorRGB
 90
      255
102
RTVSPost2010PropOp44
 70
     1
102
RTVSPost2010Prop45
280
     0
102
RTVSPost2010PropOp45
 70
     1
102
RTVSPost2010Prop46
 90
       50
102
RTVSPost2010PropOp46
 70
     1
102
RTVSPost2010Prop47
 90
       50
102
RTVSPost2010PropOp47
 70
     1
102
RTVSPost2010Prop48
 90
       50
102
RTVSPost2010PropOp48
 70
     1
102
RTVSPost2010Prop49
280
     0
102
RTVSPost2010PropOp49
 70
     1
102
RTVSPost2010Prop50
 90
       50
102
RTVSPost2010PropOp50
 70
     1
102
RTVSPost2010Prop51ColorIndex
 90
      256
102
RTVSPost2010Prop51ColorRGB
 90
-16777216
102
RTVSPost2010PropOp51
 70
     0
102
RTVSPost2010Prop52
140
1.0
102
RTVSPost2010PropOp52
 70
     0
102
RTVSPost2010Prop53
 90
        2
102
RTVSPost2010PropOp53
 70
     1
102
RTVSPost2010Prop54
  1
strokes_ogs.tif
102
RTVSPost2010PropOp54
 70
     1
102
RTVSPost2010Prop55
280
     0
102
RTVSPost2010PropOp55
 70
     1
102
RTVSPost2010Prop56
140
1.0
102
RTVSPost2010PropOp56
 70
     1
102
RTVSPost2010Prop57
140
1.0
102
RTVSPost2010PropOp57
 70
     1
  0
XRECORD
  5
30F
102
{ACAD_REACTORS
330
30E
102
}
330
30E
100
AcDbXrecord
280
     1
102
RTVSPropertyOp0
 70
     1
102
RTVSPropertyOp1
 70
     1
102
RTVSPropertyOp2
 70
     1
102
RTVSPropertyOp3
 70
     1
102
RTVSPropertyOp4
 70
     1
102
RTVSPropertyOp5
 70
     1
102
RTVSPropertyOp6
 70
     1
102
RTVSPropertyOp7
 70
     1
102
RTVSPropertyOp8
 70
     1
102
RTVSPropertyOp9
 70
     1
102
RTVSPropertyOp10
 70
     1
102
RTVSPropertyOp11
 70
     1
102
RTVSPropertyOp12
 70
     1
102
RTVSPropertyOp13
 70
     1
102
RTVSPropertyOp14
 70
     1
102
RTVSPropertyOp15
 70
     1
102
RTVSPropertyOp16
 70
     1
102
RTVSPropertyOp17
 70
     1
102
RTVSPropertyOp18
 70
     1
102
RTVSPropertyOp19
 70
     1
102
RTVSPropertyOp20
 70
     1
102
RTVSPropertyOp21
 70
     1
102
RTVSPropertyOp22
 70
     1
102
RTVSPropertyOp23
 70
     1
102
RTVSPropertyOp24
 70
     1
102
RTVSPropertyOp25
 70
     1
102
RTVSPropertyOp26
 70
     1
102
RTVSPropertyOp27
 70
     1
102
RTVSPropertyOp28
 70
     1
102
RTVSPropertyOp29
 70
     1
102
RTVSPropertyOp30
 70
     1
102
RTVSPropertyOp31
 70
     1
102
RTVSPropertyOp32
 70
     1
102
RTVSPropertyOp33
 70
     1
102
RTVSPropertyOp34
 70
     1
102
RTVSPropertyOp35
 70
     1
102
RTVSPropertyOp36
 70
     1
102
RTVSPropertyOp37
 70
     1
102
RTVSPropertyOp38
 70
     1
102
RTVSPropertyOp39
 70
     1
102
RTVSPropertyOp40
 70
     1
102
RTVSPropertyOp41
 70
     1
102
RTVSPropertyOp42
 70
     1
102
RTVSPropertyOp43
 70
     1
102
RTVSPropertyOp44
 70
     1
102
RTVSPropertyOp45
 70
     1
102
RTVSPropertyOp46
 70
     1
102
RTVSPropertyOp47
 70
     1
102
RTVSPropertyOp48
 70
     1
102
RTVSPropertyOp49
 70
     1
102
RTVSPropertyOp50
 70
     1
102
RTVSPropertyOp51
 70
     0
102
RTVSPropertyOp52
 70
     0
102
RTVSPropertyOp53
 70
     1
102
RTVSPropertyOp54
 70
     1
102
RTVSPropertyOp55
 70
     1
102
RTVSPropertyOp56
 70
     1
102
RTVSPropertyOp57
 70
     1
102
RTVSPost2010Prop28
280
     0
102
RTVSPost2010PropOp28
 70
     1
102
RTVSPost2010Prop29
280
     1
102
RTVSPost2010PropOp29
 70
     1
102
RTVSPost2010Prop30
280
     1
102
RTVSPost2010PropOp30
 70
     1
102
RTVSPost2010Prop31
280
     0
102
RTVSPost2010PropOp31
 70
     1
102
RTVSPost2010Prop32
280
     0
102
RTVSPost2010PropOp32
 70
     1
102
RTVSPost2010Prop33
280
     0
102
RTVSPost2010PropOp33
 70
     1
102
RTVSPost2010Prop34
280
     0
102
RTVSPost2010PropOp34
 70
     1
102
RTVSPost2010Prop35
280
     0
102
RTVSPost2010PropOp35
 70
     1
102
RTVSPost2010Prop36
280
     0
102
RTVSPost2010PropOp36
 70
     1
102
RTVSPost2010Prop37
 90
       50
102
RTVSPost2010PropOp37
 70
     1
102
RTVSPost2010Prop38
140
0.0
102
RTVSPost2010PropOp38
 70
     1
102
RTVSPost2010Prop39
140
1.0
102
RTVSPost2010PropOp39
 70
     1
102
RTVSPost2010Prop40
 90
        0
102
RTVSPost2010PropOp40
 70
     1
102
RTVSPost2010Prop41ColorIndex
 90
       18
102
RTVSPost2010Prop41ColorRGB
 90
        0
102
RTVSPost2010PropOp41
 70
     1
102
RTVSPost2010Prop42
 90
       50
102
RTVSPost2010PropOp42
 70
     1
102
RTVSPost2010Prop43
 90
        3
102
RTVSPost2010PropOp43
 70
     1
102
RTVSPost2010Prop44ColorIndex
 90
        5
102
RTVSPost2010Prop44ColorRGB
 90
      255
102
RTVSPost2010PropOp44
 70
     1
102
RTVSPost2010Prop45
280
     0
102
RTVSPost2010PropOp45
 70
     1
102
RTVSPost2010Prop46
 90
       50
102
RTVSPost2010PropOp46
 70
     1
102
RTVSPost2010Prop47
 90
       50
102
RTVSPost2010PropOp47
 70
     1
102
RTVSPost2010Prop48
 90
       50
102
RTVSPost2010PropOp48
 70
     1
102
RTVSPost2010Prop49
280
     0
102
RTVSPost2010PropOp49
 70
     1
102
RTVSPost2010Prop50
 90
       50
102
RTVSPost2010PropOp50
 70
     1
102
RTVSPost2010Prop51ColorIndex
 90
      256
102
RTVSPost2010Prop51ColorRGB
 90
-16777216
102
RTVSPost2010PropOp51
 70
     0
102
RTVSPost2010Prop52
140
1.0
102
RTVSPost2010PropOp52
 70
     0
102
RTVSPost2010Prop53
 90
        2
102
RTVSPost2010PropOp53
 70
     1
102
RTVSPost2010Prop54
  1
strokes_ogs.tif
102
RTVSPost2010PropOp54
 70
     1
102
RTVSPost2010Prop55
280
     0
102
RTVSPost2010PropOp55
 70
     1
102
RTVSPost2010Prop56
140
1.0
102
RTVSPost2010PropOp56
 70
     1
102
RTVSPost2010Prop57
140
1.0
102
RTVSPost2010PropOp57
 70
     1
  0
XRECORD
  5
301
102
{ACAD_REACTORS
330
300
102
}
330
300
100
AcDbXrecord
280
     1
102
RTVSPropertyOp0
 70
     1
102
RTVSPropertyOp1
 70
     1
102
RTVSPropertyOp2
 70
     1
102
RTVSPropertyOp3
 70
     1
102
RTVSPropertyOp4
 70
     1
102
RTVSPropertyOp5
 70
     1
102
RTVSPropertyOp6
 70
     1
102
RTVSPropertyOp7
 70
     1
102
RTVSPropertyOp8
 70
     1
102
RTVSPropertyOp9
 70
     1
102
RTVSPropertyOp10
 70
     1
102
RTVSPropertyOp11
 70
     1
102
RTVSPropertyOp12
 70
     1
102
RTVSPropertyOp13
 70
     1
102
RTVSPropertyOp14
 70
     1
102
RTVSPropertyOp15
 70
     1
102
RTVSPropertyOp16
 70
     1
102
RTVSPropertyOp17
 70
     1
102
RTVSPropertyOp18
 70
     1
102
RTVSPropertyOp19
 70
     1
102
RTVSPropertyOp20
 70
     1
102
RTVSPropertyOp21
 70
     1
102
RTVSPropertyOp22
 70
     1
102
RTVSPropertyOp23
 70
     1
102
RTVSPropertyOp24
 70
     1
102
RTVSPropertyOp25
 70
     1
102
RTVSPropertyOp26
 70
     1
102
RTVSPropertyOp27
 70
     1
102
RTVSPropertyOp28
 70
     1
102
RTVSPropertyOp29
 70
     1
102
RTVSPropertyOp30
 70
     1
102
RTVSPropertyOp31
 70
     1
102
RTVSPropertyOp32
 70
     1
102
RTVSPropertyOp33
 70
     1
102
RTVSPropertyOp34
 70
     1
102
RTVSPropertyOp35
 70
     1
102
RTVSPropertyOp36
 70
     1
102
RTVSPropertyOp37
 70
     1
102
RTVSPropertyOp38
 70
     1
102
RTVSPropertyOp39
 70
     1
102
RTVSPropertyOp40
 70
     1
102
RTVSPropertyOp41
 70
     1
102
RTVSPropertyOp42
 70
     1
102
RTVSPropertyOp43
 70
     1
102
RTVSPropertyOp44
 70
     1
102
RTVSPropertyOp45
 70
     1
102
RTVSPropertyOp46
 70
     1
102
RTVSPropertyOp47
 70
     1
102
RTVSPropertyOp48
 70
     1
102
RTVSPropertyOp49
 70
     1
102
RTVSPropertyOp50
 70
     1
102
RTVSPropertyOp51
 70
     0
102
RTVSPropertyOp52
 70
     0
102
RTVSPropertyOp53
 70
     1
102
RTVSPropertyOp54
 70
     1
102
RTVSPropertyOp55
 70
     1
102
RTVSPropertyOp56
 70
     1
102
RTVSPropertyOp57
 70
     1
102
RTVSPost2010Prop28
280
     0
102
RTVSPost2010PropOp28
 70
     1
102
RTVSPost2010Prop29
280
     1
102
RTVSPost2010PropOp29
 70
     1
102
RTVSPost2010Prop30
280
     1
102
RTVSPost2010PropOp30
 70
     1
102
RTVSPost2010Prop31
280
     0
102
RTVSPost2010PropOp31
 70
     1
102
RTVSPost2010Prop32
280
     0
102
RTVSPost2010PropOp32
 70
     1
102
RTVSPost2010Prop33
280
     0
102
RTVSPost2010PropOp33
 70
     1
102
RTVSPost2010Prop34
280
     0
102
RTVSPost2010PropOp34
 70
     1
102
RTVSPost2010Prop35
280
     0
102
RTVSPost2010PropOp35
 70
     1
102
RTVSPost2010Prop36
280
     0
102
RTVSPost2010PropOp36
 70
     1
102
RTVSPost2010Prop37
 90
       50
102
RTVSPost2010PropOp37
 70
     1
102
RTVSPost2010Prop38
140
0.0
102
RTVSPost2010PropOp38
 70
     1
102
RTVSPost2010Prop39
140
1.0
102
RTVSPost2010PropOp39
 70
     1
102
RTVSPost2010Prop40
 90
        0
102
RTVSPost2010PropOp40
 70
     1
102
RTVSPost2010Prop41ColorIndex
 90
       18
102
RTVSPost2010Prop41ColorRGB
 90
        0
102
RTVSPost2010PropOp41
 70
     1
102
RTVSPost2010Prop42
 90
       50
102
RTVSPost2010PropOp42
 70
     1
102
RTVSPost2010Prop43
 90
        3
102
RTVSPost2010PropOp43
 70
     1
102
RTVSPost2010Prop44ColorIndex
 90
        5
102
RTVSPost2010Prop44ColorRGB
 90
      255
102
RTVSPost2010PropOp44
 70
     1
102
RTVSPost2010Prop45
280
     0
102
RTVSPost2010PropOp45
 70
     1
102
RTVSPost2010Prop46
 90
       50
102
RTVSPost2010PropOp46
 70
     1
102
RTVSPost2010Prop47
 90
       50
102
RTVSPost2010PropOp47
 70
     1
102
RTVSPost2010Prop48
 90
       50
102
RTVSPost2010PropOp48
 70
     1
102
RTVSPost2010Prop49
280
     0
102
RTVSPost2010PropOp49
 70
     1
102
RTVSPost2010Prop50
 90
       50
102
RTVSPost2010PropOp50
 70
     1
102
RTVSPost2010Prop51ColorIndex
 90
      256
102
RTVSPost2010Prop51ColorRGB
 90
-16777216
102
RTVSPost2010PropOp51
 70
     0
102
RTVSPost2010Prop52
140
1.0
102
RTVSPost2010PropOp52
 70
     0
102
RTVSPost2010Prop53
 90
        2
102
RTVSPost2010PropOp53
 70
     1
102
RTVSPost2010Prop54
  1
strokes_ogs.tif
102
RTVSPost2010PropOp54
 70
     1
102
RTVSPost2010Prop55
280
     0
102
RTVSPost2010PropOp55
 70
     1
102
RTVSPost2010Prop56
140
1.0
102
RTVSPost2010PropOp56
 70
     1
102
RTVSPost2010Prop57
140
1.0
102
RTVSPost2010PropOp57
 70
     1
  0
XRECORD
  5
321
102
{ACAD_REACTORS
330
320
102
}
330
320
100
AcDbXrecord
280
     1
102
RTVSPropertyOp0
 70
     1
102
RTVSPropertyOp1
 70
     1
102
RTVSPropertyOp2
 70
     1
102
RTVSPropertyOp3
 70
     1
102
RTVSPropertyOp4
 70
     1
102
RTVSPropertyOp5
 70
     1
102
RTVSPropertyOp6
 70
     1
102
RTVSPropertyOp7
 70
     1
102
RTVSPropertyOp8
 70
     1
102
RTVSPropertyOp9
 70
     1
102
RTVSPropertyOp10
 70
     1
102
RTVSPropertyOp11
 70
     1
102
RTVSPropertyOp12
 70
     1
102
RTVSPropertyOp13
 70
     1
102
RTVSPropertyOp14
 70
     1
102
RTVSPropertyOp15
 70
     1
102
RTVSPropertyOp16
 70
     1
102
RTVSPropertyOp17
 70
     1
102
RTVSPropertyOp18
 70
     1
102
RTVSPropertyOp19
 70
     1
102
RTVSPropertyOp20
 70
     1
102
RTVSPropertyOp21
 70
     1
102
RTVSPropertyOp22
 70
     1
102
RTVSPropertyOp23
 70
     1
102
RTVSPropertyOp24
 70
     1
102
RTVSPropertyOp25
 70
     1
102
RTVSPropertyOp26
 70
     1
102
RTVSPropertyOp27
 70
     1
102
RTVSPropertyOp28
 70
     1
102
RTVSPropertyOp29
 70
     1
102
RTVSPropertyOp30
 70
     1
102
RTVSPropertyOp31
 70
     1
102
RTVSPropertyOp32
 70
     1
102
RTVSPropertyOp33
 70
     1
102
RTVSPropertyOp34
 70
     1
102
RTVSPropertyOp35
 70
     1
102
RTVSPropertyOp36
 70
     1
102
RTVSPropertyOp37
 70
     1
102
RTVSPropertyOp38
 70
     1
102
RTVSPropertyOp39
 70
     1
102
RTVSPropertyOp40
 70
     1
102
RTVSPropertyOp41
 70
     1
102
RTVSPropertyOp42
 70
     1
102
RTVSPropertyOp43
 70
     1
102
RTVSPropertyOp44
 70
     1
102
RTVSPropertyOp45
 70
     1
102
RTVSPropertyOp46
 70
     1
102
RTVSPropertyOp47
 70
     1
102
RTVSPropertyOp48
 70
     1
102
RTVSPropertyOp49
 70
     1
102
RTVSPropertyOp50
 70
     1
102
RTVSPropertyOp51
 70
     0
102
RTVSPropertyOp52
 70
     0
102
RTVSPropertyOp53
 70
     1
102
RTVSPropertyOp54
 70
     1
102
RTVSPropertyOp55
 70
     1
102
RTVSPropertyOp56
 70
     1
102
RTVSPropertyOp57
 70
     1
102
RTVSPost2010Prop28
280
     0
102
RTVSPost2010PropOp28
 70
     1
102
RTVSPost2010Prop29
280
     1
102
RTVSPost2010PropOp29
 70
     1
102
RTVSPost2010Prop30
280
     1
102
RTVSPost2010PropOp30
 70
     1
102
RTVSPost2010Prop31
280
     0
102
RTVSPost2010PropOp31
 70
     1
102
RTVSPost2010Prop32
280
     0
102
RTVSPost2010PropOp32
 70
     1
102
RTVSPost2010Prop33
280
     0
102
RTVSPost2010PropOp33
 70
     1
102
RTVSPost2010Prop34
280
     0
102
RTVSPost2010PropOp34
 70
     1
102
RTVSPost2010Prop35
280
     0
102
RTVSPost2010PropOp35
 70
     1
102
RTVSPost2010Prop36
280
     0
102
RTVSPost2010PropOp36
 70
     1
102
RTVSPost2010Prop37
 90
       50
102
RTVSPost2010PropOp37
 70
     1
102
RTVSPost2010Prop38
140
0.0
102
RTVSPost2010PropOp38
 70
     1
102
RTVSPost2010Prop39
140
1.0
102
RTVSPost2010PropOp39
 70
     1
102
RTVSPost2010Prop40
 90
        0
102
RTVSPost2010PropOp40
 70
     1
102
RTVSPost2010Prop41ColorIndex
 90
       18
102
RTVSPost2010Prop41ColorRGB
 90
        0
102
RTVSPost2010PropOp41
 70
     1
102
RTVSPost2010Prop42
 90
       50
102
RTVSPost2010PropOp42
 70
     1
102
RTVSPost2010Prop43
 90
        3
102
RTVSPost2010PropOp43
 70
     1
102
RTVSPost2010Prop44ColorIndex
 90
        5
102
RTVSPost2010Prop44ColorRGB
 90
      255
102
RTVSPost2010PropOp44
 70
     1
102
RTVSPost2010Prop45
280
     0
102
RTVSPost2010PropOp45
 70
     1
102
RTVSPost2010Prop46
 90
       50
102
RTVSPost2010PropOp46
 70
     1
102
RTVSPost2010Prop47
 90
       50
102
RTVSPost2010PropOp47
 70
     1
102
RTVSPost2010Prop48
 90
       50
102
RTVSPost2010PropOp48
 70
     1
102
RTVSPost2010Prop49
280
     0
102
RTVSPost2010PropOp49
 70
     1
102
RTVSPost2010Prop50
 90
       50
102
RTVSPost2010PropOp50
 70
     1
102
RTVSPost2010Prop51ColorIndex
 90
      256
102
RTVSPost2010Prop51ColorRGB
 90
-16777216
102
RTVSPost2010PropOp51
 70
     0
102
RTVSPost2010Prop52
140
1.0
102
RTVSPost2010PropOp52
 70
     0
102
RTVSPost2010Prop53
 90
        2
102
RTVSPost2010PropOp53
 70
     1
102
RTVSPost2010Prop54
  1
strokes_ogs.tif
102
RTVSPost2010PropOp54
 70
     1
102
RTVSPost2010Prop55
280
     0
102
RTVSPost2010PropOp55
 70
     1
102
RTVSPost2010Prop56
140
1.0
102
RTVSPost2010PropOp56
 70
     1
102
RTVSPost2010Prop57
140
1.0
102
RTVSPost2010PropOp57
 70
     1
  0
ENDSEC
  0
EOF
